ISO-10303-21;
HEADER;
FILE_DESCRIPTION((''),'2;1');
FILE_NAME('425722_PRT','2019-03-01T16:01:51',('tomasz.grudniewski'),(''),
'CREO PARAMETRIC BY PTC INC, 2018500','CREO PARAMETRIC BY PTC INC, 2018500','');
FILE_SCHEMA(('CONFIG_CONTROL_DESIGN'));
ENDSEC;
DATA;
#2=CARTESIAN_POINT('',(3.8E1,0.E0,6.E0));
#3=DIRECTION('',(0.E0,-1.E0,0.E0));
#4=DIRECTION('',(1.E0,0.E0,0.E0));
#5=AXIS2_PLACEMENT_3D('',#2,#3,#4);
#7=CARTESIAN_POINT('',(3.8E1,0.E0,-6.E0));
#8=DIRECTION('',(0.E0,-1.E0,0.E0));
#9=DIRECTION('',(0.E0,0.E0,-1.E0));
#10=AXIS2_PLACEMENT_3D('',#7,#8,#9);
#12=DIRECTION('',(0.E0,-1.E0,0.E0));
#13=VECTOR('',#12,2.E0);
#14=CARTESIAN_POINT('',(3.8E1,2.E0,7.E0));
#15=LINE('',#14,#13);
#16=DIRECTION('',(1.E0,0.E0,0.E0));
#17=VECTOR('',#16,1.35E1);
#18=CARTESIAN_POINT('',(2.45E1,0.E0,7.E0));
#19=LINE('',#18,#17);
#20=DIRECTION('',(0.E0,1.E0,0.E0));
#21=VECTOR('',#20,2.E0);
#22=CARTESIAN_POINT('',(2.45E1,0.E0,7.E0));
#23=LINE('',#22,#21);
#24=DIRECTION('',(1.E0,0.E0,0.E0));
#25=VECTOR('',#24,1.35E1);
#26=CARTESIAN_POINT('',(2.45E1,2.E0,7.E0));
#27=LINE('',#26,#25);
#28=DIRECTION('',(1.E0,0.E0,0.E0));
#29=VECTOR('',#28,2.E0);
#30=CARTESIAN_POINT('',(2.2E1,2.5E0,7.E0));
#31=LINE('',#30,#29);
#32=DIRECTION('',(0.E0,0.E0,1.E0));
#33=VECTOR('',#32,1.4E1);
#34=CARTESIAN_POINT('',(2.45E1,0.E0,-7.E0));
#35=LINE('',#34,#33);
#36=CARTESIAN_POINT('',(2.45E1,2.5E0,-7.E0));
#37=DIRECTION('',(0.E0,0.E0,-1.E0));
#38=DIRECTION('',(0.E0,-1.E0,0.E0));
#39=AXIS2_PLACEMENT_3D('',#36,#37,#38);
#41=DIRECTION('',(0.E0,0.E0,1.E0));
#42=VECTOR('',#41,1.4E1);
#43=CARTESIAN_POINT('',(2.2E1,2.5E0,-7.E0));
#44=LINE('',#43,#42);
#45=CARTESIAN_POINT('',(2.45E1,2.5E0,7.E0));
#46=DIRECTION('',(0.E0,0.E0,-1.E0));
#47=DIRECTION('',(0.E0,-1.E0,0.E0));
#48=AXIS2_PLACEMENT_3D('',#45,#46,#47);
#50=DIRECTION('',(0.E0,1.E0,0.E0));
#51=VECTOR('',#50,2.E0);
#52=CARTESIAN_POINT('',(2.45E1,0.E0,-7.E0));
#53=LINE('',#52,#51);
#54=DIRECTION('',(0.E0,-1.E0,0.E0));
#55=VECTOR('',#54,2.E0);
#56=CARTESIAN_POINT('',(3.8E1,2.E0,-7.E0));
#57=LINE('',#56,#55);
#58=DIRECTION('',(1.E0,0.E0,0.E0));
#59=VECTOR('',#58,1.35E1);
#60=CARTESIAN_POINT('',(2.45E1,2.E0,-7.E0));
#61=LINE('',#60,#59);
#62=DIRECTION('',(1.E0,0.E0,0.E0));
#63=VECTOR('',#62,1.35E1);
#64=CARTESIAN_POINT('',(2.45E1,0.E0,-7.E0));
#65=LINE('',#64,#63);
#66=DIRECTION('',(0.E0,-1.E0,0.E0));
#67=VECTOR('',#66,2.E0);
#68=CARTESIAN_POINT('',(3.9E1,2.E0,6.E0));
#69=LINE('',#68,#67);
#70=DIRECTION('',(0.E0,0.E0,1.E0));
#71=VECTOR('',#70,1.2E1);
#72=CARTESIAN_POINT('',(3.9E1,2.E0,-6.E0));
#73=LINE('',#72,#71);
#74=DIRECTION('',(0.E0,-1.E0,0.E0));
#75=VECTOR('',#74,2.E0);
#76=CARTESIAN_POINT('',(3.9E1,2.E0,-6.E0));
#77=LINE('',#76,#75);
#78=DIRECTION('',(0.E0,0.E0,1.E0));
#79=VECTOR('',#78,1.2E1);
#80=CARTESIAN_POINT('',(3.9E1,0.E0,-6.E0));
#81=LINE('',#80,#79);
#82=CARTESIAN_POINT('',(3.8E1,2.E0,6.E0));
#83=DIRECTION('',(0.E0,1.E0,0.E0));
#84=DIRECTION('',(0.E0,0.E0,1.E0));
#85=AXIS2_PLACEMENT_3D('',#82,#83,#84);
#87=CARTESIAN_POINT('',(3.8E1,2.E0,-6.E0));
#88=DIRECTION('',(0.E0,1.E0,0.E0));
#89=DIRECTION('',(1.E0,0.E0,0.E0));
#90=AXIS2_PLACEMENT_3D('',#87,#88,#89);
#92=DIRECTION('',(0.E0,0.E0,1.E0));
#93=VECTOR('',#92,1.4E1);
#94=CARTESIAN_POINT('',(2.45E1,2.E0,-7.E0));
#95=LINE('',#94,#93);
#96=CARTESIAN_POINT('',(2.45E1,2.5E0,7.E0));
#97=DIRECTION('',(0.E0,0.E0,-1.E0));
#98=DIRECTION('',(0.E0,-1.E0,0.E0));
#99=AXIS2_PLACEMENT_3D('',#96,#97,#98);
#101=DIRECTION('',(0.E0,0.E0,1.E0));
#102=VECTOR('',#101,1.4E1);
#103=CARTESIAN_POINT('',(2.4E1,2.5E0,-7.E0));
#104=LINE('',#103,#102);
#105=CARTESIAN_POINT('',(2.45E1,2.5E0,-7.E0));
#106=DIRECTION('',(0.E0,0.E0,-1.E0));
#107=DIRECTION('',(0.E0,-1.E0,0.E0));
#108=AXIS2_PLACEMENT_3D('',#105,#106,#107);
#110=DIRECTION('',(0.E0,0.E0,1.E0));
#111=VECTOR('',#110,1.4E1);
#112=CARTESIAN_POINT('',(2.4E1,1.1E1,-7.E0));
#113=LINE('',#112,#111);
#114=DIRECTION('',(0.E0,-1.E0,0.E0));
#115=VECTOR('',#114,8.5E0);
#116=CARTESIAN_POINT('',(2.2E1,1.1E1,-7.E0));
#117=LINE('',#116,#115);
#118=DIRECTION('',(1.E0,0.E0,0.E0));
#119=VECTOR('',#118,2.E0);
#120=CARTESIAN_POINT('',(2.2E1,2.5E0,-7.E0));
#121=LINE('',#120,#119);
#122=DIRECTION('',(0.E0,-1.E0,0.E0));
#123=VECTOR('',#122,8.5E0);
#124=CARTESIAN_POINT('',(2.4E1,1.1E1,-7.E0));
#125=LINE('',#124,#123);
#126=DIRECTION('',(0.E0,0.E0,1.E0));
#127=VECTOR('',#126,1.4E1);
#128=CARTESIAN_POINT('',(2.2E1,1.1E1,-7.E0));
#129=LINE('',#128,#127);
#130=DIRECTION('',(0.E0,0.E0,1.E0));
#131=VECTOR('',#130,1.4E1);
#132=CARTESIAN_POINT('',(0.E0,1.1E1,-7.E0));
#133=LINE('',#132,#131);
#134=CARTESIAN_POINT('',(1.1E1,1.1E1,-7.E0));
#135=DIRECTION('',(0.E0,0.E0,-1.E0));
#136=DIRECTION('',(-1.E0,0.E0,0.E0));
#137=AXIS2_PLACEMENT_3D('',#134,#135,#136);
#139=DIRECTION('',(1.E0,0.E0,0.E0));
#140=VECTOR('',#139,2.E0);
#141=CARTESIAN_POINT('',(2.2E1,1.1E1,-7.E0));
#142=LINE('',#141,#140);
#143=CARTESIAN_POINT('',(1.1E1,1.1E1,-7.E0));
#144=DIRECTION('',(0.E0,0.E0,-1.E0));
#145=DIRECTION('',(-1.E0,0.E0,0.E0));
#146=AXIS2_PLACEMENT_3D('',#143,#144,#145);
#148=DIRECTION('',(0.E0,0.E0,1.E0));
#149=VECTOR('',#148,1.4E1);
#150=CARTESIAN_POINT('',(-2.E0,1.1E1,-7.E0));
#151=LINE('',#150,#149);
#152=CARTESIAN_POINT('',(1.1E1,1.1E1,7.E0));
#153=DIRECTION('',(0.E0,0.E0,-1.E0));
#154=DIRECTION('',(-1.E0,0.E0,0.E0));
#155=AXIS2_PLACEMENT_3D('',#152,#153,#154);
#157=DIRECTION('',(-1.E0,0.E0,0.E0));
#158=VECTOR('',#157,2.E0);
#159=CARTESIAN_POINT('',(0.E0,1.1E1,7.E0));
#160=LINE('',#159,#158);
#161=CARTESIAN_POINT('',(1.1E1,1.1E1,7.E0));
#162=DIRECTION('',(0.E0,0.E0,-1.E0));
#163=DIRECTION('',(-1.E0,0.E0,0.E0));
#164=AXIS2_PLACEMENT_3D('',#161,#162,#163);
#166=DIRECTION('',(1.E0,0.E0,0.E0));
#167=VECTOR('',#166,2.E0);
#168=CARTESIAN_POINT('',(-2.E0,1.E0,7.E0));
#169=LINE('',#168,#167);
#170=DIRECTION('',(0.E0,1.E0,0.E0));
#171=VECTOR('',#170,1.E1);
#172=CARTESIAN_POINT('',(-2.E0,1.E0,7.E0));
#173=LINE('',#172,#171);
#174=DIRECTION('',(0.E0,1.E0,0.E0));
#175=VECTOR('',#174,1.E1);
#176=CARTESIAN_POINT('',(0.E0,1.E0,7.E0));
#177=LINE('',#176,#175);
#178=CARTESIAN_POINT('',(0.E0,1.E0,6.E0));
#179=DIRECTION('',(1.E0,0.E0,0.E0));
#180=DIRECTION('',(0.E0,0.E0,1.E0));
#181=AXIS2_PLACEMENT_3D('',#178,#179,#180);
#183=CARTESIAN_POINT('',(0.E0,1.E0,-6.E0));
#184=DIRECTION('',(1.E0,0.E0,0.E0));
#185=DIRECTION('',(0.E0,-1.E0,0.E0));
#186=AXIS2_PLACEMENT_3D('',#183,#184,#185);
#188=DIRECTION('',(0.E0,0.E0,1.E0));
#189=VECTOR('',#188,1.2E1);
#190=CARTESIAN_POINT('',(0.E0,0.E0,-6.E0));
#191=LINE('',#190,#189);
#192=DIRECTION('',(1.E0,0.E0,0.E0));
#193=VECTOR('',#192,2.E0);
#194=CARTESIAN_POINT('',(-2.E0,1.E0,-7.E0));
#195=LINE('',#194,#193);
#196=DIRECTION('',(0.E0,1.E0,0.E0));
#197=VECTOR('',#196,1.E1);
#198=CARTESIAN_POINT('',(0.E0,1.E0,-7.E0));
#199=LINE('',#198,#197);
#200=DIRECTION('',(-1.E0,0.E0,0.E0));
#201=VECTOR('',#200,2.E0);
#202=CARTESIAN_POINT('',(0.E0,1.1E1,-7.E0));
#203=LINE('',#202,#201);
#204=DIRECTION('',(0.E0,1.E0,0.E0));
#205=VECTOR('',#204,1.E1);
#206=CARTESIAN_POINT('',(-2.E0,1.E0,-7.E0));
#207=LINE('',#206,#205);
#208=CARTESIAN_POINT('',(-2.E0,1.E0,6.E0));
#209=DIRECTION('',(-1.E0,0.E0,0.E0));
#210=DIRECTION('',(0.E0,-1.E0,0.E0));
#211=AXIS2_PLACEMENT_3D('',#208,#209,#210);
#213=DIRECTION('',(0.E0,0.E0,1.E0));
#214=VECTOR('',#213,1.2E1);
#215=CARTESIAN_POINT('',(-2.E0,0.E0,-6.E0));
#216=LINE('',#215,#214);
#217=CARTESIAN_POINT('',(-2.E0,1.E0,-6.E0));
#218=DIRECTION('',(-1.E0,0.E0,0.E0));
#219=DIRECTION('',(0.E0,0.E0,-1.E0));
#220=AXIS2_PLACEMENT_3D('',#217,#218,#219);
#222=DIRECTION('',(1.E0,0.E0,0.E0));
#223=VECTOR('',#222,2.E0);
#224=CARTESIAN_POINT('',(-2.E0,0.E0,6.E0));
#225=LINE('',#224,#223);
#226=DIRECTION('',(1.E0,0.E0,0.E0));
#227=VECTOR('',#226,2.E0);
#228=CARTESIAN_POINT('',(-2.E0,0.E0,-6.E0));
#229=LINE('',#228,#227);
#230=DIRECTION('',(0.E0,-1.E0,0.E0));
#231=VECTOR('',#230,8.5E0);
#232=CARTESIAN_POINT('',(2.2E1,1.1E1,7.E0));
#233=LINE('',#232,#231);
#234=DIRECTION('',(1.E0,0.E0,0.E0));
#235=VECTOR('',#234,2.E0);
#236=CARTESIAN_POINT('',(2.2E1,1.1E1,7.E0));
#237=LINE('',#236,#235);
#238=DIRECTION('',(0.E0,-1.E0,0.E0));
#239=VECTOR('',#238,8.5E0);
#240=CARTESIAN_POINT('',(2.4E1,1.1E1,7.E0));
#241=LINE('',#240,#239);
#242=CARTESIAN_POINT('',(0.E0,1.1E1,-7.E0));
#243=CARTESIAN_POINT('',(2.2E1,1.1E1,-7.E0));
#244=VERTEX_POINT('',#242);
#245=VERTEX_POINT('',#243);
#246=CARTESIAN_POINT('',(2.2E1,2.5E0,-7.E0));
#247=VERTEX_POINT('',#246);
#248=CARTESIAN_POINT('',(0.E0,1.1E1,7.E0));
#249=CARTESIAN_POINT('',(2.2E1,1.1E1,7.E0));
#250=VERTEX_POINT('',#248);
#251=VERTEX_POINT('',#249);
#252=CARTESIAN_POINT('',(2.2E1,2.5E0,7.E0));
#253=VERTEX_POINT('',#252);
#254=CARTESIAN_POINT('',(2.45E1,0.E0,-7.E0));
#255=CARTESIAN_POINT('',(2.45E1,0.E0,7.E0));
#256=VERTEX_POINT('',#254);
#257=VERTEX_POINT('',#255);
#258=CARTESIAN_POINT('',(-2.E0,1.1E1,-7.E0));
#259=CARTESIAN_POINT('',(2.4E1,1.1E1,-7.E0));
#260=VERTEX_POINT('',#258);
#261=VERTEX_POINT('',#259);
#262=CARTESIAN_POINT('',(2.4E1,2.5E0,-7.E0));
#263=VERTEX_POINT('',#262);
#264=CARTESIAN_POINT('',(-2.E0,1.1E1,7.E0));
#265=CARTESIAN_POINT('',(2.4E1,1.1E1,7.E0));
#266=VERTEX_POINT('',#264);
#267=VERTEX_POINT('',#265);
#268=CARTESIAN_POINT('',(2.4E1,2.5E0,7.E0));
#269=VERTEX_POINT('',#268);
#270=CARTESIAN_POINT('',(2.45E1,2.E0,-7.E0));
#271=CARTESIAN_POINT('',(2.45E1,2.E0,7.E0));
#272=VERTEX_POINT('',#270);
#273=VERTEX_POINT('',#271);
#274=CARTESIAN_POINT('',(0.E0,1.E0,7.E0));
#275=CARTESIAN_POINT('',(0.E0,0.E0,6.E0));
#276=VERTEX_POINT('',#274);
#277=VERTEX_POINT('',#275);
#278=CARTESIAN_POINT('',(-2.E0,0.E0,6.E0));
#279=VERTEX_POINT('',#278);
#280=CARTESIAN_POINT('',(-2.E0,1.E0,7.E0));
#281=VERTEX_POINT('',#280);
#282=CARTESIAN_POINT('',(3.9E1,0.E0,6.E0));
#283=CARTESIAN_POINT('',(3.8E1,0.E0,7.E0));
#284=VERTEX_POINT('',#282);
#285=VERTEX_POINT('',#283);
#286=CARTESIAN_POINT('',(3.8E1,2.E0,7.E0));
#287=VERTEX_POINT('',#286);
#288=CARTESIAN_POINT('',(3.9E1,2.E0,6.E0));
#289=VERTEX_POINT('',#288);
#290=CARTESIAN_POINT('',(3.8E1,0.E0,-7.E0));
#291=CARTESIAN_POINT('',(3.9E1,0.E0,-6.E0));
#292=VERTEX_POINT('',#290);
#293=VERTEX_POINT('',#291);
#294=CARTESIAN_POINT('',(3.9E1,2.E0,-6.E0));
#295=VERTEX_POINT('',#294);
#296=CARTESIAN_POINT('',(3.8E1,2.E0,-7.E0));
#297=VERTEX_POINT('',#296);
#298=CARTESIAN_POINT('',(0.E0,0.E0,-6.E0));
#299=CARTESIAN_POINT('',(0.E0,1.E0,-7.E0));
#300=VERTEX_POINT('',#298);
#301=VERTEX_POINT('',#299);
#302=CARTESIAN_POINT('',(-2.E0,1.E0,-7.E0));
#303=VERTEX_POINT('',#302);
#304=CARTESIAN_POINT('',(-2.E0,0.E0,-6.E0));
#305=VERTEX_POINT('',#304);
#306=CARTESIAN_POINT('',(2.2E1,0.E0,-7.E0));
#307=DIRECTION('',(0.E0,-1.E0,0.E0));
#308=DIRECTION('',(1.E0,0.E0,0.E0));
#309=AXIS2_PLACEMENT_3D('',#306,#307,#308);
#310=PLANE('',#309);
#312=ORIENTED_EDGE('',*,*,#311,.F.);
#314=ORIENTED_EDGE('',*,*,#313,.F.);
#316=ORIENTED_EDGE('',*,*,#315,.F.);
#318=ORIENTED_EDGE('',*,*,#317,.F.);
#320=ORIENTED_EDGE('',*,*,#319,.T.);
#322=ORIENTED_EDGE('',*,*,#321,.T.);
#323=EDGE_LOOP('',(#312,#314,#316,#318,#320,#322));
#324=FACE_OUTER_BOUND('',#323,.F.);
#325=ADVANCED_FACE('',(#324),#310,.T.);
#326=CARTESIAN_POINT('',(3.8E1,5.52864E1,6.E0));
#327=DIRECTION('',(0.E0,-1.E0,0.E0));
#328=DIRECTION('',(1.E0,0.E0,0.E0));
#329=AXIS2_PLACEMENT_3D('',#326,#327,#328);
#330=CYLINDRICAL_SURFACE('',#329,1.E0);
#331=ORIENTED_EDGE('',*,*,#311,.T.);
#333=ORIENTED_EDGE('',*,*,#332,.F.);
#335=ORIENTED_EDGE('',*,*,#334,.T.);
#337=ORIENTED_EDGE('',*,*,#336,.T.);
#338=EDGE_LOOP('',(#331,#333,#335,#337));
#339=FACE_OUTER_BOUND('',#338,.F.);
#340=ADVANCED_FACE('',(#339),#330,.T.);
#341=CARTESIAN_POINT('',(3.175E1,1.E0,7.E0));
#342=DIRECTION('',(0.E0,0.E0,-1.E0));
#343=DIRECTION('',(1.E0,0.E0,0.E0));
#344=AXIS2_PLACEMENT_3D('',#341,#342,#343);
#345=PLANE('',#344);
#346=ORIENTED_EDGE('',*,*,#332,.T.);
#347=ORIENTED_EDGE('',*,*,#321,.F.);
#349=ORIENTED_EDGE('',*,*,#348,.T.);
#351=ORIENTED_EDGE('',*,*,#350,.T.);
#352=EDGE_LOOP('',(#346,#347,#349,#351));
#353=FACE_OUTER_BOUND('',#352,.F.);
#354=ADVANCED_FACE('',(#353),#345,.F.);
#355=CARTESIAN_POINT('',(2.343933982822E1,1.439339828220E0,7.E0));
#356=DIRECTION('',(0.E0,0.E0,1.E0));
#357=DIRECTION('',(-1.E0,0.E0,0.E0));
#358=AXIS2_PLACEMENT_3D('',#355,#356,#357);
#359=PLANE('',#358);
#361=ORIENTED_EDGE('',*,*,#360,.T.);
#363=ORIENTED_EDGE('',*,*,#362,.T.);
#365=ORIENTED_EDGE('',*,*,#364,.F.);
#366=ORIENTED_EDGE('',*,*,#348,.F.);
#367=EDGE_LOOP('',(#361,#363,#365,#366));
#368=FACE_OUTER_BOUND('',#367,.F.);
#369=ADVANCED_FACE('',(#368),#359,.T.);
#370=CARTESIAN_POINT('',(2.45E1,2.5E0,-7.E0));
#371=DIRECTION('',(0.E0,0.E0,-1.E0));
#372=DIRECTION('',(0.E0,-1.E0,0.E0));
#373=AXIS2_PLACEMENT_3D('',#370,#371,#372);
#374=CYLINDRICAL_SURFACE('',#373,2.5E0);
#375=ORIENTED_EDGE('',*,*,#319,.F.);
#377=ORIENTED_EDGE('',*,*,#376,.T.);
#379=ORIENTED_EDGE('',*,*,#378,.T.);
#380=ORIENTED_EDGE('',*,*,#360,.F.);
#381=EDGE_LOOP('',(#375,#377,#379,#380));
#382=FACE_OUTER_BOUND('',#381,.F.);
#383=ADVANCED_FACE('',(#382),#374,.T.);
#384=CARTESIAN_POINT('',(2.343933982822E1,1.439339828220E0,-7.E0));
#385=DIRECTION('',(0.E0,0.E0,1.E0));
#386=DIRECTION('',(-1.E0,0.E0,0.E0));
#387=AXIS2_PLACEMENT_3D('',#384,#385,#386);
#388=PLANE('',#387);
#389=ORIENTED_EDGE('',*,*,#376,.F.);
#391=ORIENTED_EDGE('',*,*,#390,.T.);
#393=ORIENTED_EDGE('',*,*,#392,.T.);
#395=ORIENTED_EDGE('',*,*,#394,.F.);
#396=EDGE_LOOP('',(#389,#391,#393,#395));
#397=FACE_OUTER_BOUND('',#396,.F.);
#398=ADVANCED_FACE('',(#397),#388,.F.);
#399=CARTESIAN_POINT('',(3.175E1,1.E0,-7.E0));
#400=DIRECTION('',(0.E0,0.E0,-1.E0));
#401=DIRECTION('',(1.E0,0.E0,0.E0));
#402=AXIS2_PLACEMENT_3D('',#399,#400,#401);
#403=PLANE('',#402);
#405=ORIENTED_EDGE('',*,*,#404,.F.);
#407=ORIENTED_EDGE('',*,*,#406,.F.);
#408=ORIENTED_EDGE('',*,*,#390,.F.);
#409=ORIENTED_EDGE('',*,*,#317,.T.);
#410=EDGE_LOOP('',(#405,#407,#408,#409));
#411=FACE_OUTER_BOUND('',#410,.F.);
#412=ADVANCED_FACE('',(#411),#403,.T.);
#413=CARTESIAN_POINT('',(3.8E1,5.52864E1,-6.E0));
#414=DIRECTION('',(0.E0,-1.E0,0.E0));
#415=DIRECTION('',(0.E0,0.E0,-1.E0));
#416=AXIS2_PLACEMENT_3D('',#413,#414,#415);
#417=CYLINDRICAL_SURFACE('',#416,1.E0);
#418=ORIENTED_EDGE('',*,*,#315,.T.);
#420=ORIENTED_EDGE('',*,*,#419,.F.);
#422=ORIENTED_EDGE('',*,*,#421,.T.);
#423=ORIENTED_EDGE('',*,*,#404,.T.);
#424=EDGE_LOOP('',(#418,#420,#422,#423));
#425=FACE_OUTER_BOUND('',#424,.F.);
#426=ADVANCED_FACE('',(#425),#417,.T.);
#427=CARTESIAN_POINT('',(3.9E1,1.E0,0.E0));
#428=DIRECTION('',(1.E0,0.E0,0.E0));
#429=DIRECTION('',(0.E0,0.E0,1.E0));
#430=AXIS2_PLACEMENT_3D('',#427,#428,#429);
#431=PLANE('',#430);
#432=ORIENTED_EDGE('',*,*,#336,.F.);
#434=ORIENTED_EDGE('',*,*,#433,.F.);
#435=ORIENTED_EDGE('',*,*,#419,.T.);
#436=ORIENTED_EDGE('',*,*,#313,.T.);
#437=EDGE_LOOP('',(#432,#434,#435,#436));
#438=FACE_OUTER_BOUND('',#437,.F.);
#439=ADVANCED_FACE('',(#438),#431,.T.);
#440=CARTESIAN_POINT('',(2.2E1,2.E0,-7.E0));
#441=DIRECTION('',(0.E0,-1.E0,0.E0));
#442=DIRECTION('',(1.E0,0.E0,0.E0));
#443=AXIS2_PLACEMENT_3D('',#440,#441,#442);
#444=PLANE('',#443);
#445=ORIENTED_EDGE('',*,*,#334,.F.);
#446=ORIENTED_EDGE('',*,*,#350,.F.);
#448=ORIENTED_EDGE('',*,*,#447,.F.);
#449=ORIENTED_EDGE('',*,*,#406,.T.);
#450=ORIENTED_EDGE('',*,*,#421,.F.);
#451=ORIENTED_EDGE('',*,*,#433,.T.);
#452=EDGE_LOOP('',(#445,#446,#448,#449,#450,#451));
#453=FACE_OUTER_BOUND('',#452,.F.);
#454=ADVANCED_FACE('',(#453),#444,.F.);
#455=CARTESIAN_POINT('',(2.45E1,2.5E0,-7.E0));
#456=DIRECTION('',(0.E0,0.E0,-1.E0));
#457=DIRECTION('',(0.E0,-1.E0,0.E0));
#458=AXIS2_PLACEMENT_3D('',#455,#456,#457);
#459=CYLINDRICAL_SURFACE('',#458,5.E-1);
#460=ORIENTED_EDGE('',*,*,#447,.T.);
#461=ORIENTED_EDGE('',*,*,#364,.T.);
#463=ORIENTED_EDGE('',*,*,#462,.F.);
#464=ORIENTED_EDGE('',*,*,#392,.F.);
#465=EDGE_LOOP('',(#460,#461,#463,#464));
#466=FACE_OUTER_BOUND('',#465,.F.);
#467=ADVANCED_FACE('',(#466),#459,.F.);
#468=CARTESIAN_POINT('',(2.4E1,1.1E1,-7.E0));
#469=DIRECTION('',(-1.E0,0.E0,0.E0));
#470=DIRECTION('',(0.E0,-1.E0,0.E0));
#471=AXIS2_PLACEMENT_3D('',#468,#469,#470);
#472=PLANE('',#471);
#474=ORIENTED_EDGE('',*,*,#473,.T.);
#475=ORIENTED_EDGE('',*,*,#462,.T.);
#477=ORIENTED_EDGE('',*,*,#476,.F.);
#479=ORIENTED_EDGE('',*,*,#478,.F.);
#480=EDGE_LOOP('',(#474,#475,#477,#479));
#481=FACE_OUTER_BOUND('',#480,.F.);
#482=ADVANCED_FACE('',(#481),#472,.F.);
#483=CARTESIAN_POINT('',(2.3E1,6.75E0,-7.E0));
#484=DIRECTION('',(0.E0,0.E0,-1.E0));
#485=DIRECTION('',(0.E0,-1.E0,0.E0));
#486=AXIS2_PLACEMENT_3D('',#483,#484,#485);
#487=PLANE('',#486);
#489=ORIENTED_EDGE('',*,*,#488,.T.);
#490=ORIENTED_EDGE('',*,*,#394,.T.);
#491=ORIENTED_EDGE('',*,*,#473,.F.);
#493=ORIENTED_EDGE('',*,*,#492,.F.);
#494=EDGE_LOOP('',(#489,#490,#491,#493));
#495=FACE_OUTER_BOUND('',#494,.F.);
#496=ADVANCED_FACE('',(#495),#487,.T.);
#497=CARTESIAN_POINT('',(2.2E1,1.1E1,-7.E0));
#498=DIRECTION('',(-1.E0,0.E0,0.E0));
#499=DIRECTION('',(0.E0,-1.E0,0.E0));
#500=AXIS2_PLACEMENT_3D('',#497,#498,#499);
#501=PLANE('',#500);
#502=ORIENTED_EDGE('',*,*,#488,.F.);
#504=ORIENTED_EDGE('',*,*,#503,.T.);
#506=ORIENTED_EDGE('',*,*,#505,.T.);
#507=ORIENTED_EDGE('',*,*,#378,.F.);
#508=EDGE_LOOP('',(#502,#504,#506,#507));
#509=FACE_OUTER_BOUND('',#508,.F.);
#510=ADVANCED_FACE('',(#509),#501,.T.);
#511=CARTESIAN_POINT('',(1.1E1,1.1E1,-7.E0));
#512=DIRECTION('',(0.E0,0.E0,1.E0));
#513=DIRECTION('',(1.E0,0.E0,0.E0));
#514=AXIS2_PLACEMENT_3D('',#511,#512,#513);
#515=CYLINDRICAL_SURFACE('',#514,1.1E1);
#517=ORIENTED_EDGE('',*,*,#516,.F.);
#519=ORIENTED_EDGE('',*,*,#518,.T.);
#521=ORIENTED_EDGE('',*,*,#520,.T.);
#522=ORIENTED_EDGE('',*,*,#503,.F.);
#523=EDGE_LOOP('',(#517,#519,#521,#522));
#524=FACE_OUTER_BOUND('',#523,.F.);
#525=ADVANCED_FACE('',(#524),#515,.F.);
#526=CARTESIAN_POINT('',(1.1E1,2.3E1,-7.E0));
#527=DIRECTION('',(0.E0,0.E0,-1.E0));
#528=DIRECTION('',(0.E0,1.E0,0.E0));
#529=AXIS2_PLACEMENT_3D('',#526,#527,#528);
#530=PLANE('',#529);
#531=ORIENTED_EDGE('',*,*,#516,.T.);
#532=ORIENTED_EDGE('',*,*,#492,.T.);
#534=ORIENTED_EDGE('',*,*,#533,.F.);
#536=ORIENTED_EDGE('',*,*,#535,.F.);
#537=EDGE_LOOP('',(#531,#532,#534,#536));
#538=FACE_OUTER_BOUND('',#537,.F.);
#539=ADVANCED_FACE('',(#538),#530,.T.);
#540=CARTESIAN_POINT('',(1.1E1,1.1E1,-7.E0));
#541=DIRECTION('',(0.E0,0.E0,1.E0));
#542=DIRECTION('',(1.E0,0.E0,0.E0));
#543=AXIS2_PLACEMENT_3D('',#540,#541,#542);
#544=CYLINDRICAL_SURFACE('',#543,1.3E1);
#545=ORIENTED_EDGE('',*,*,#533,.T.);
#546=ORIENTED_EDGE('',*,*,#478,.T.);
#548=ORIENTED_EDGE('',*,*,#547,.F.);
#550=ORIENTED_EDGE('',*,*,#549,.F.);
#551=EDGE_LOOP('',(#545,#546,#548,#550));
#552=FACE_OUTER_BOUND('',#551,.F.);
#553=ADVANCED_FACE('',(#552),#544,.T.);
#554=CARTESIAN_POINT('',(1.1E1,2.3E1,7.E0));
#555=DIRECTION('',(0.E0,0.E0,-1.E0));
#556=DIRECTION('',(0.E0,1.E0,0.E0));
#557=AXIS2_PLACEMENT_3D('',#554,#555,#556);
#558=PLANE('',#557);
#559=ORIENTED_EDGE('',*,*,#520,.F.);
#561=ORIENTED_EDGE('',*,*,#560,.T.);
#562=ORIENTED_EDGE('',*,*,#547,.T.);
#564=ORIENTED_EDGE('',*,*,#563,.F.);
#565=EDGE_LOOP('',(#559,#561,#562,#564));
#566=FACE_OUTER_BOUND('',#565,.F.);
#567=ADVANCED_FACE('',(#566),#558,.F.);
#568=CARTESIAN_POINT('',(-1.E0,5.5E0,7.E0));
#569=DIRECTION('',(0.E0,0.E0,-1.E0));
#570=DIRECTION('',(0.E0,1.E0,0.E0));
#571=AXIS2_PLACEMENT_3D('',#568,#569,#570);
#572=PLANE('',#571);
#574=ORIENTED_EDGE('',*,*,#573,.F.);
#576=ORIENTED_EDGE('',*,*,#575,.T.);
#577=ORIENTED_EDGE('',*,*,#560,.F.);
#579=ORIENTED_EDGE('',*,*,#578,.F.);
#580=EDGE_LOOP('',(#574,#576,#577,#579));
#581=FACE_OUTER_BOUND('',#580,.F.);
#582=ADVANCED_FACE('',(#581),#572,.F.);
#583=CARTESIAN_POINT('',(-5.54476E1,1.E0,6.E0));
#584=DIRECTION('',(1.E0,0.E0,0.E0));
#585=DIRECTION('',(0.E0,0.E0,1.E0));
#586=AXIS2_PLACEMENT_3D('',#583,#584,#585);
#587=CYLINDRICAL_SURFACE('',#586,1.E0);
#589=ORIENTED_EDGE('',*,*,#588,.T.);
#591=ORIENTED_EDGE('',*,*,#590,.F.);
#593=ORIENTED_EDGE('',*,*,#592,.T.);
#594=ORIENTED_EDGE('',*,*,#573,.T.);
#595=EDGE_LOOP('',(#589,#591,#593,#594));
#596=FACE_OUTER_BOUND('',#595,.F.);
#597=ADVANCED_FACE('',(#596),#587,.T.);
#598=CARTESIAN_POINT('',(0.E0,0.E0,-7.E0));
#599=DIRECTION('',(1.E0,0.E0,0.E0));
#600=DIRECTION('',(0.E0,1.E0,0.E0));
#601=AXIS2_PLACEMENT_3D('',#598,#599,#600);
#602=PLANE('',#601);
#603=ORIENTED_EDGE('',*,*,#588,.F.);
#604=ORIENTED_EDGE('',*,*,#578,.T.);
#605=ORIENTED_EDGE('',*,*,#518,.F.);
#607=ORIENTED_EDGE('',*,*,#606,.F.);
#609=ORIENTED_EDGE('',*,*,#608,.F.);
#611=ORIENTED_EDGE('',*,*,#610,.T.);
#612=EDGE_LOOP('',(#603,#604,#605,#607,#609,#611));
#613=FACE_OUTER_BOUND('',#612,.F.);
#614=ADVANCED_FACE('',(#613),#602,.T.);
#615=CARTESIAN_POINT('',(-1.E0,5.5E0,-7.E0));
#616=DIRECTION('',(0.E0,0.E0,-1.E0));
#617=DIRECTION('',(0.E0,1.E0,0.E0));
#618=AXIS2_PLACEMENT_3D('',#615,#616,#617);
#619=PLANE('',#618);
#621=ORIENTED_EDGE('',*,*,#620,.T.);
#622=ORIENTED_EDGE('',*,*,#606,.T.);
#623=ORIENTED_EDGE('',*,*,#535,.T.);
#625=ORIENTED_EDGE('',*,*,#624,.F.);
#626=EDGE_LOOP('',(#621,#622,#623,#625));
#627=FACE_OUTER_BOUND('',#626,.F.);
#628=ADVANCED_FACE('',(#627),#619,.T.);
#629=CARTESIAN_POINT('',(-5.54476E1,1.E0,-6.E0));
#630=DIRECTION('',(1.E0,0.E0,0.E0));
#631=DIRECTION('',(0.E0,-1.E0,0.E0));
#632=AXIS2_PLACEMENT_3D('',#629,#630,#631);
#633=CYLINDRICAL_SURFACE('',#632,1.E0);
#634=ORIENTED_EDGE('',*,*,#608,.T.);
#635=ORIENTED_EDGE('',*,*,#620,.F.);
#637=ORIENTED_EDGE('',*,*,#636,.T.);
#639=ORIENTED_EDGE('',*,*,#638,.T.);
#640=EDGE_LOOP('',(#634,#635,#637,#639));
#641=FACE_OUTER_BOUND('',#640,.F.);
#642=ADVANCED_FACE('',(#641),#633,.T.);
#643=CARTESIAN_POINT('',(-2.E0,0.E0,-7.E0));
#644=DIRECTION('',(1.E0,0.E0,0.E0));
#645=DIRECTION('',(0.E0,1.E0,0.E0));
#646=AXIS2_PLACEMENT_3D('',#643,#644,#645);
#647=PLANE('',#646);
#648=ORIENTED_EDGE('',*,*,#592,.F.);
#650=ORIENTED_EDGE('',*,*,#649,.F.);
#651=ORIENTED_EDGE('',*,*,#636,.F.);
#652=ORIENTED_EDGE('',*,*,#624,.T.);
#653=ORIENTED_EDGE('',*,*,#549,.T.);
#654=ORIENTED_EDGE('',*,*,#575,.F.);
#655=EDGE_LOOP('',(#648,#650,#651,#652,#653,#654));
#656=FACE_OUTER_BOUND('',#655,.F.);
#657=ADVANCED_FACE('',(#656),#647,.F.);
#658=CARTESIAN_POINT('',(-1.E0,0.E0,0.E0));
#659=DIRECTION('',(0.E0,1.E0,0.E0));
#660=DIRECTION('',(0.E0,0.E0,1.E0));
#661=AXIS2_PLACEMENT_3D('',#658,#659,#660);
#662=PLANE('',#661);
#663=ORIENTED_EDGE('',*,*,#590,.T.);
#664=ORIENTED_EDGE('',*,*,#610,.F.);
#665=ORIENTED_EDGE('',*,*,#638,.F.);
#666=ORIENTED_EDGE('',*,*,#649,.T.);
#667=EDGE_LOOP('',(#663,#664,#665,#666));
#668=FACE_OUTER_BOUND('',#667,.F.);
#669=ADVANCED_FACE('',(#668),#662,.F.);
#670=CARTESIAN_POINT('',(2.3E1,6.75E0,7.E0));
#671=DIRECTION('',(0.E0,0.E0,-1.E0));
#672=DIRECTION('',(0.E0,-1.E0,0.E0));
#673=AXIS2_PLACEMENT_3D('',#670,#671,#672);
#674=PLANE('',#673);
#675=ORIENTED_EDGE('',*,*,#505,.F.);
#676=ORIENTED_EDGE('',*,*,#563,.T.);
#677=ORIENTED_EDGE('',*,*,#476,.T.);
#678=ORIENTED_EDGE('',*,*,#362,.F.);
#679=EDGE_LOOP('',(#675,#676,#677,#678));
#680=FACE_OUTER_BOUND('',#679,.F.);
#681=ADVANCED_FACE('',(#680),#674,.F.);
#682=CLOSED_SHELL('',(#325,#340,#354,#369,#383,#398,#412,#426,#439,#454,#467,
#482,#496,#510,#525,#539,#553,#567,#582,#597,#614,#628,#642,#657,#669,#681));
#683=MANIFOLD_SOLID_BREP('',#682);
#685=DIMENSIONAL_EXPONENTS(0.E0,0.E0,0.E0,0.E0,0.E0,0.E0,0.E0);
#687=PLANE_ANGLE_MEASURE_WITH_UNIT(PLANE_ANGLE_MEASURE(1.745329251994E-2),#686);
#688=(CONVERSION_BASED_UNIT('DEGREE',#687)NAMED_UNIT(*)PLANE_ANGLE_UNIT());
#690=UNCERTAINTY_MEASURE_WITH_UNIT(LENGTH_MEASURE(4.952578887736E-3),#684,
'closure',
'Maximum model space distance between geometric entities at asserted connectivities');
#691=(GEOMETRIC_REPRESENTATION_CONTEXT(3)GLOBAL_UNCERTAINTY_ASSIGNED_CONTEXT((
#690))GLOBAL_UNIT_ASSIGNED_CONTEXT((#684,#688,#689))REPRESENTATION_CONTEXT
('ID1','3'));
#693=APPLICATION_CONTEXT(
'CONFIGURATION CONTROLLED 3D DESIGNS OF MECHANICAL PARTS AND ASSEMBLIES');
#694=APPLICATION_PROTOCOL_DEFINITION('international standard',
'config_control_design',1994,#693);
#695=DESIGN_CONTEXT('',#693,'design');
#696=MECHANICAL_CONTEXT('',#693,'mechanical');
#697=PRODUCT('425722_PRT','425722_PRT','NOT SPECIFIED',(#696));
#698=PRODUCT_DEFINITION_FORMATION_WITH_SPECIFIED_SOURCE('3','LAST_VERSION',#697,
.MADE.);
#702=PRODUCT_CATEGORY('part','');
#703=PRODUCT_RELATED_PRODUCT_CATEGORY('detail','',(#697));
#704=PRODUCT_CATEGORY_RELATIONSHIP('','',#702,#703);
#705=SECURITY_CLASSIFICATION_LEVEL('unclassified');
#706=SECURITY_CLASSIFICATION('','',#705);
#707=CC_DESIGN_SECURITY_CLASSIFICATION(#706,(#698));
#708=APPROVAL_STATUS('approved');
#709=APPROVAL(#708,'');
#710=CC_DESIGN_APPROVAL(#709,(#706,#698,#699));
#711=CALENDAR_DATE(119,1,3);
#712=COORDINATED_UNIVERSAL_TIME_OFFSET(1,0,.AHEAD.);
#713=LOCAL_TIME(16,1,5.1E1,#712);
#714=DATE_AND_TIME(#711,#713);
#715=APPROVAL_DATE_TIME(#714,#709);
#716=DATE_TIME_ROLE('creation_date');
#717=CC_DESIGN_DATE_AND_TIME_ASSIGNMENT(#714,#716,(#699));
#718=DATE_TIME_ROLE('classification_date');
#719=CC_DESIGN_DATE_AND_TIME_ASSIGNMENT(#714,#718,(#706));
#720=PERSON('UNSPECIFIED','UNSPECIFIED',$,$,$,$);
#721=ORGANIZATION('UNSPECIFIED','UNSPECIFIED','UNSPECIFIED');
#722=PERSON_AND_ORGANIZATION(#720,#721);
#723=APPROVAL_ROLE('approver');
#724=APPROVAL_PERSON_ORGANIZATION(#722,#709,#723);
#725=PERSON_AND_ORGANIZATION_ROLE('creator');
#726=CC_DESIGN_PERSON_AND_ORGANIZATION_ASSIGNMENT(#722,#725,(#698,#699));
#727=PERSON_AND_ORGANIZATION_ROLE('design_supplier');
#728=CC_DESIGN_PERSON_AND_ORGANIZATION_ASSIGNMENT(#722,#727,(#698));
#729=PERSON_AND_ORGANIZATION_ROLE('classification_officer');
#730=CC_DESIGN_PERSON_AND_ORGANIZATION_ASSIGNMENT(#722,#729,(#706));
#731=PERSON_AND_ORGANIZATION_ROLE('design_owner');
#732=CC_DESIGN_PERSON_AND_ORGANIZATION_ASSIGNMENT(#722,#731,(#697));
#6=CIRCLE('',#5,1.E0);
#11=CIRCLE('',#10,1.E0);
#40=CIRCLE('',#39,2.5E0);
#49=CIRCLE('',#48,2.5E0);
#86=CIRCLE('',#85,1.E0);
#91=CIRCLE('',#90,1.E0);
#100=CIRCLE('',#99,5.E-1);
#109=CIRCLE('',#108,5.E-1);
#138=CIRCLE('',#137,1.1E1);
#147=CIRCLE('',#146,1.3E1);
#156=CIRCLE('',#155,1.1E1);
#165=CIRCLE('',#164,1.3E1);
#182=CIRCLE('',#181,1.E0);
#187=CIRCLE('',#186,1.E0);
#212=CIRCLE('',#211,1.E0);
#221=CIRCLE('',#220,1.E0);
#311=EDGE_CURVE('',#284,#285,#6,.T.);
#313=EDGE_CURVE('',#293,#284,#81,.T.);
#315=EDGE_CURVE('',#292,#293,#11,.T.);
#317=EDGE_CURVE('',#256,#292,#65,.T.);
#319=EDGE_CURVE('',#256,#257,#35,.T.);
#321=EDGE_CURVE('',#257,#285,#19,.T.);
#332=EDGE_CURVE('',#287,#285,#15,.T.);
#334=EDGE_CURVE('',#287,#289,#86,.T.);
#336=EDGE_CURVE('',#289,#284,#69,.T.);
#348=EDGE_CURVE('',#257,#273,#23,.T.);
#350=EDGE_CURVE('',#273,#287,#27,.T.);
#360=EDGE_CURVE('',#257,#253,#49,.T.);
#362=EDGE_CURVE('',#253,#269,#31,.T.);
#364=EDGE_CURVE('',#273,#269,#100,.T.);
#376=EDGE_CURVE('',#256,#247,#40,.T.);
#378=EDGE_CURVE('',#247,#253,#44,.T.);
#390=EDGE_CURVE('',#256,#272,#53,.T.);
#392=EDGE_CURVE('',#272,#263,#109,.T.);
#394=EDGE_CURVE('',#247,#263,#121,.T.);
#404=EDGE_CURVE('',#297,#292,#57,.T.);
#406=EDGE_CURVE('',#272,#297,#61,.T.);
#419=EDGE_CURVE('',#295,#293,#77,.T.);
#421=EDGE_CURVE('',#295,#297,#91,.T.);
#433=EDGE_CURVE('',#295,#289,#73,.T.);
#447=EDGE_CURVE('',#272,#273,#95,.T.);
#462=EDGE_CURVE('',#263,#269,#104,.T.);
#473=EDGE_CURVE('',#261,#263,#125,.T.);
#476=EDGE_CURVE('',#267,#269,#241,.T.);
#478=EDGE_CURVE('',#261,#267,#113,.T.);
#488=EDGE_CURVE('',#245,#247,#117,.T.);
#492=EDGE_CURVE('',#245,#261,#142,.T.);
#503=EDGE_CURVE('',#245,#251,#129,.T.);
#505=EDGE_CURVE('',#251,#253,#233,.T.);
#516=EDGE_CURVE('',#244,#245,#138,.T.);
#518=EDGE_CURVE('',#244,#250,#133,.T.);
#520=EDGE_CURVE('',#250,#251,#156,.T.);
#533=EDGE_CURVE('',#260,#261,#147,.T.);
#535=EDGE_CURVE('',#244,#260,#203,.T.);
#547=EDGE_CURVE('',#266,#267,#165,.T.);
#549=EDGE_CURVE('',#260,#266,#151,.T.);
#560=EDGE_CURVE('',#250,#266,#160,.T.);
#563=EDGE_CURVE('',#251,#267,#237,.T.);
#573=EDGE_CURVE('',#281,#276,#169,.T.);
#575=EDGE_CURVE('',#281,#266,#173,.T.);
#578=EDGE_CURVE('',#276,#250,#177,.T.);
#588=EDGE_CURVE('',#276,#277,#182,.T.);
#590=EDGE_CURVE('',#279,#277,#225,.T.);
#592=EDGE_CURVE('',#279,#281,#212,.T.);
#606=EDGE_CURVE('',#301,#244,#199,.T.);
#608=EDGE_CURVE('',#300,#301,#187,.T.);
#610=EDGE_CURVE('',#300,#277,#191,.T.);
#620=EDGE_CURVE('',#303,#301,#195,.T.);
#624=EDGE_CURVE('',#303,#260,#207,.T.);
#636=EDGE_CURVE('',#303,#305,#221,.T.);
#638=EDGE_CURVE('',#305,#300,#229,.T.);
#649=EDGE_CURVE('',#305,#279,#216,.T.);
#684=(LENGTH_UNIT()NAMED_UNIT(*)SI_UNIT(.MILLI.,.METRE.));
#686=(NAMED_UNIT(*)PLANE_ANGLE_UNIT()SI_UNIT($,.RADIAN.));
#689=(NAMED_UNIT(*)SI_UNIT($,.STERADIAN.)SOLID_ANGLE_UNIT());
#692=ADVANCED_BREP_SHAPE_REPRESENTATION('',(#683),#691);
#699=PRODUCT_DEFINITION('design','',#698,#695);
#700=PRODUCT_DEFINITION_SHAPE('','SHAPE FOR 425722_PRT.',#699);
#701=SHAPE_DEFINITION_REPRESENTATION(#700,#692);
ENDSEC;
END-ISO-10303-21;
