ISO-10303-21;
HEADER;
/* Generated by software containing ST-Developer
 * from STEP Tools, Inc. (www.steptools.com) 
 */

FILE_DESCRIPTION(
/* description */ (''),
/* implementation_level */ '2;1');

FILE_NAME(
/* name */ 
'Z:\\DOKUMENTACJA TECHNICZNA\\VI- Drabinki kablowe- system H45-H120\\Z
M\\ZM_ZMO.stp',
/* time_stamp */ '2020-11-18T12:10:40+01:00',
/* author */ ('stanislaw.luczak'),
/* organization */ (''),
/* preprocessor_version */ 'ST-DEVELOPER v18.1',
/* originating_system */ 'Autodesk Inventor 2021',
/* authorisation */ '');

FILE_SCHEMA (('AUTOMOTIVE_DESIGN { 1 0 10303 214 3 1 1 }'));
ENDSEC;

DATA;
#10=MECHANICAL_DESIGN_GEOMETRIC_PRESENTATION_REPRESENTATION('',(#13),#605);
#11=SHAPE_REPRESENTATION_RELATIONSHIP('SRR','None',#612,#12);
#12=ADVANCED_BREP_SHAPE_REPRESENTATION('',(#14),#604);
#13=STYLED_ITEM('',(#621),#14);
#14=MANIFOLD_SOLID_BREP('Bry\X2\0142\X0\a1',#347);
#15=FACE_BOUND('',#51,.T.);
#16=FACE_BOUND('',#61,.T.);
#17=PLANE('',#370);
#18=PLANE('',#374);
#19=PLANE('',#378);
#20=PLANE('',#380);
#21=PLANE('',#386);
#22=PLANE('',#387);
#23=PLANE('',#391);
#24=PLANE('',#396);
#25=PLANE('',#399);
#26=PLANE('',#400);
#27=FACE_OUTER_BOUND('',#45,.T.);
#28=FACE_OUTER_BOUND('',#46,.T.);
#29=FACE_OUTER_BOUND('',#47,.T.);
#30=FACE_OUTER_BOUND('',#48,.T.);
#31=FACE_OUTER_BOUND('',#49,.T.);
#32=FACE_OUTER_BOUND('',#50,.T.);
#33=FACE_OUTER_BOUND('',#52,.T.);
#34=FACE_OUTER_BOUND('',#53,.T.);
#35=FACE_OUTER_BOUND('',#54,.T.);
#36=FACE_OUTER_BOUND('',#55,.T.);
#37=FACE_OUTER_BOUND('',#56,.T.);
#38=FACE_OUTER_BOUND('',#57,.T.);
#39=FACE_OUTER_BOUND('',#58,.T.);
#40=FACE_OUTER_BOUND('',#59,.T.);
#41=FACE_OUTER_BOUND('',#60,.T.);
#42=FACE_OUTER_BOUND('',#62,.T.);
#43=FACE_OUTER_BOUND('',#63,.T.);
#44=FACE_OUTER_BOUND('',#64,.T.);
#45=EDGE_LOOP('',(#225,#226,#227,#228));
#46=EDGE_LOOP('',(#229,#230,#231,#232));
#47=EDGE_LOOP('',(#233,#234,#235,#236));
#48=EDGE_LOOP('',(#237,#238,#239,#240));
#49=EDGE_LOOP('',(#241,#242,#243,#244));
#50=EDGE_LOOP('',(#245,#246,#247,#248,#249,#250));
#51=EDGE_LOOP('',(#251,#252,#253,#254));
#52=EDGE_LOOP('',(#255,#256,#257,#258));
#53=EDGE_LOOP('',(#259,#260,#261,#262));
#54=EDGE_LOOP('',(#263,#264,#265,#266));
#55=EDGE_LOOP('',(#267,#268,#269,#270));
#56=EDGE_LOOP('',(#271,#272,#273,#274,#275,#276));
#57=EDGE_LOOP('',(#277,#278,#279,#280));
#58=EDGE_LOOP('',(#281,#282,#283,#284,#285,#286,#287,#288));
#59=EDGE_LOOP('',(#289,#290,#291,#292));
#60=EDGE_LOOP('',(#293,#294,#295,#296,#297,#298));
#61=EDGE_LOOP('',(#299,#300,#301,#302));
#62=EDGE_LOOP('',(#303,#304,#305,#306));
#63=EDGE_LOOP('',(#307,#308,#309,#310,#311,#312));
#64=EDGE_LOOP('',(#313,#314,#315,#316,#317,#318,#319,#320));
#65=LINE('',#509,#97);
#66=LINE('',#512,#98);
#67=LINE('',#515,#99);
#68=LINE('',#517,#100);
#69=LINE('',#518,#101);
#70=LINE('',#524,#102);
#71=LINE('',#526,#103);
#72=LINE('',#527,#104);
#73=LINE('',#533,#105);
#74=LINE('',#536,#106);
#75=LINE('',#539,#107);
#76=LINE('',#543,#108);
#77=LINE('',#545,#109);
#78=LINE('',#546,#110);
#79=LINE('',#549,#111);
#80=LINE('',#550,#112);
#81=LINE('',#554,#113);
#82=LINE('',#560,#114);
#83=LINE('',#563,#115);
#84=LINE('',#566,#116);
#85=LINE('',#568,#117);
#86=LINE('',#569,#118);
#87=LINE('',#572,#119);
#88=LINE('',#574,#120);
#89=LINE('',#576,#121);
#90=LINE('',#580,#122);
#91=LINE('',#585,#123);
#92=LINE('',#588,#124);
#93=LINE('',#592,#125);
#94=LINE('',#595,#126);
#95=LINE('',#596,#127);
#96=LINE('',#600,#128);
#97=VECTOR('',#407,10.);
#98=VECTOR('',#410,10.);
#99=VECTOR('',#413,10.);
#100=VECTOR('',#414,10.);
#101=VECTOR('',#415,10.);
#102=VECTOR('',#422,10.);
#103=VECTOR('',#425,10.);
#104=VECTOR('',#426,10.);
#105=VECTOR('',#431,10.);
#106=VECTOR('',#434,10.);
#107=VECTOR('',#437,10.);
#108=VECTOR('',#440,10.);
#109=VECTOR('',#441,10.);
#110=VECTOR('',#442,10.);
#111=VECTOR('',#445,10.);
#112=VECTOR('',#446,10.);
#113=VECTOR('',#451,10.);
#114=VECTOR('',#456,10.);
#115=VECTOR('',#459,10.);
#116=VECTOR('',#462,10.);
#117=VECTOR('',#463,10.);
#118=VECTOR('',#464,10.);
#119=VECTOR('',#467,10.);
#120=VECTOR('',#468,10.);
#121=VECTOR('',#469,10.);
#122=VECTOR('',#474,10.);
#123=VECTOR('',#481,10.);
#124=VECTOR('',#484,10.);
#125=VECTOR('',#489,10.);
#126=VECTOR('',#492,10.);
#127=VECTOR('',#493,10.);
#128=VECTOR('',#500,10.);
#129=CIRCLE('',#368,4.5);
#130=CIRCLE('',#369,4.5);
#131=CIRCLE('',#372,4.5);
#132=CIRCLE('',#373,4.5);
#133=CIRCLE('',#376,5.);
#134=CIRCLE('',#377,5.);
#135=CIRCLE('',#379,5.);
#136=CIRCLE('',#382,5.);
#137=CIRCLE('',#384,5.);
#138=CIRCLE('',#385,5.);
#139=CIRCLE('',#388,5.);
#140=CIRCLE('',#390,5.);
#141=CIRCLE('',#392,6.);
#142=CIRCLE('',#393,3.32087178164249);
#143=CIRCLE('',#395,6.);
#144=CIRCLE('',#398,3.32087178164249);
#145=VERTEX_POINT('',#505);
#146=VERTEX_POINT('',#506);
#147=VERTEX_POINT('',#508);
#148=VERTEX_POINT('',#510);
#149=VERTEX_POINT('',#514);
#150=VERTEX_POINT('',#516);
#151=VERTEX_POINT('',#520);
#152=VERTEX_POINT('',#522);
#153=VERTEX_POINT('',#529);
#154=VERTEX_POINT('',#530);
#155=VERTEX_POINT('',#532);
#156=VERTEX_POINT('',#534);
#157=VERTEX_POINT('',#538);
#158=VERTEX_POINT('',#540);
#159=VERTEX_POINT('',#542);
#160=VERTEX_POINT('',#544);
#161=VERTEX_POINT('',#548);
#162=VERTEX_POINT('',#552);
#163=VERTEX_POINT('',#556);
#164=VERTEX_POINT('',#557);
#165=VERTEX_POINT('',#559);
#166=VERTEX_POINT('',#561);
#167=VERTEX_POINT('',#565);
#168=VERTEX_POINT('',#567);
#169=VERTEX_POINT('',#571);
#170=VERTEX_POINT('',#573);
#171=VERTEX_POINT('',#575);
#172=VERTEX_POINT('',#579);
#173=VERTEX_POINT('',#583);
#174=VERTEX_POINT('',#586);
#175=VERTEX_POINT('',#590);
#176=VERTEX_POINT('',#594);
#177=EDGE_CURVE('',#145,#146,#129,.T.);
#178=EDGE_CURVE('',#147,#145,#65,.T.);
#179=EDGE_CURVE('',#148,#147,#130,.T.);
#180=EDGE_CURVE('',#148,#146,#66,.T.);
#181=EDGE_CURVE('',#146,#149,#67,.T.);
#182=EDGE_CURVE('',#150,#148,#68,.T.);
#183=EDGE_CURVE('',#150,#149,#69,.T.);
#184=EDGE_CURVE('',#149,#151,#131,.T.);
#185=EDGE_CURVE('',#152,#150,#132,.T.);
#186=EDGE_CURVE('',#152,#151,#70,.T.);
#187=EDGE_CURVE('',#151,#145,#71,.T.);
#188=EDGE_CURVE('',#147,#152,#72,.T.);
#189=EDGE_CURVE('',#153,#154,#133,.T.);
#190=EDGE_CURVE('',#154,#155,#73,.T.);
#191=EDGE_CURVE('',#155,#156,#134,.T.);
#192=EDGE_CURVE('',#156,#153,#74,.T.);
#193=EDGE_CURVE('',#157,#153,#75,.T.);
#194=EDGE_CURVE('',#158,#157,#135,.T.);
#195=EDGE_CURVE('',#158,#159,#76,.T.);
#196=EDGE_CURVE('',#159,#160,#77,.T.);
#197=EDGE_CURVE('',#154,#160,#78,.T.);
#198=EDGE_CURVE('',#161,#156,#79,.T.);
#199=EDGE_CURVE('',#157,#161,#80,.T.);
#200=EDGE_CURVE('',#161,#162,#136,.T.);
#201=EDGE_CURVE('',#162,#158,#81,.T.);
#202=EDGE_CURVE('',#163,#164,#137,.T.);
#203=EDGE_CURVE('',#164,#165,#82,.T.);
#204=EDGE_CURVE('',#165,#166,#138,.T.);
#205=EDGE_CURVE('',#166,#163,#83,.T.);
#206=EDGE_CURVE('',#164,#167,#84,.T.);
#207=EDGE_CURVE('',#168,#167,#85,.T.);
#208=EDGE_CURVE('',#165,#168,#86,.T.);
#209=EDGE_CURVE('',#163,#169,#87,.T.);
#210=EDGE_CURVE('',#169,#170,#88,.T.);
#211=EDGE_CURVE('',#171,#170,#89,.T.);
#212=EDGE_CURVE('',#167,#171,#139,.T.);
#213=EDGE_CURVE('',#171,#172,#90,.T.);
#214=EDGE_CURVE('',#172,#168,#140,.T.);
#215=EDGE_CURVE('',#160,#173,#141,.T.);
#216=EDGE_CURVE('',#173,#172,#91,.T.);
#217=EDGE_CURVE('',#170,#174,#142,.T.);
#218=EDGE_CURVE('',#174,#155,#92,.T.);
#219=EDGE_CURVE('',#159,#175,#143,.T.);
#220=EDGE_CURVE('',#175,#173,#93,.T.);
#221=EDGE_CURVE('',#176,#174,#94,.T.);
#222=EDGE_CURVE('',#176,#162,#95,.T.);
#223=EDGE_CURVE('',#169,#176,#144,.T.);
#224=EDGE_CURVE('',#175,#166,#96,.T.);
#225=ORIENTED_EDGE('',*,*,#177,.F.);
#226=ORIENTED_EDGE('',*,*,#178,.F.);
#227=ORIENTED_EDGE('',*,*,#179,.F.);
#228=ORIENTED_EDGE('',*,*,#180,.T.);
#229=ORIENTED_EDGE('',*,*,#181,.F.);
#230=ORIENTED_EDGE('',*,*,#180,.F.);
#231=ORIENTED_EDGE('',*,*,#182,.F.);
#232=ORIENTED_EDGE('',*,*,#183,.T.);
#233=ORIENTED_EDGE('',*,*,#184,.F.);
#234=ORIENTED_EDGE('',*,*,#183,.F.);
#235=ORIENTED_EDGE('',*,*,#185,.F.);
#236=ORIENTED_EDGE('',*,*,#186,.T.);
#237=ORIENTED_EDGE('',*,*,#187,.F.);
#238=ORIENTED_EDGE('',*,*,#186,.F.);
#239=ORIENTED_EDGE('',*,*,#188,.F.);
#240=ORIENTED_EDGE('',*,*,#178,.T.);
#241=ORIENTED_EDGE('',*,*,#189,.T.);
#242=ORIENTED_EDGE('',*,*,#190,.T.);
#243=ORIENTED_EDGE('',*,*,#191,.T.);
#244=ORIENTED_EDGE('',*,*,#192,.T.);
#245=ORIENTED_EDGE('',*,*,#189,.F.);
#246=ORIENTED_EDGE('',*,*,#193,.F.);
#247=ORIENTED_EDGE('',*,*,#194,.F.);
#248=ORIENTED_EDGE('',*,*,#195,.T.);
#249=ORIENTED_EDGE('',*,*,#196,.T.);
#250=ORIENTED_EDGE('',*,*,#197,.F.);
#251=ORIENTED_EDGE('',*,*,#184,.T.);
#252=ORIENTED_EDGE('',*,*,#187,.T.);
#253=ORIENTED_EDGE('',*,*,#177,.T.);
#254=ORIENTED_EDGE('',*,*,#181,.T.);
#255=ORIENTED_EDGE('',*,*,#192,.F.);
#256=ORIENTED_EDGE('',*,*,#198,.F.);
#257=ORIENTED_EDGE('',*,*,#199,.F.);
#258=ORIENTED_EDGE('',*,*,#193,.T.);
#259=ORIENTED_EDGE('',*,*,#194,.T.);
#260=ORIENTED_EDGE('',*,*,#199,.T.);
#261=ORIENTED_EDGE('',*,*,#200,.T.);
#262=ORIENTED_EDGE('',*,*,#201,.T.);
#263=ORIENTED_EDGE('',*,*,#202,.T.);
#264=ORIENTED_EDGE('',*,*,#203,.T.);
#265=ORIENTED_EDGE('',*,*,#204,.T.);
#266=ORIENTED_EDGE('',*,*,#205,.T.);
#267=ORIENTED_EDGE('',*,*,#203,.F.);
#268=ORIENTED_EDGE('',*,*,#206,.T.);
#269=ORIENTED_EDGE('',*,*,#207,.F.);
#270=ORIENTED_EDGE('',*,*,#208,.F.);
#271=ORIENTED_EDGE('',*,*,#202,.F.);
#272=ORIENTED_EDGE('',*,*,#209,.T.);
#273=ORIENTED_EDGE('',*,*,#210,.T.);
#274=ORIENTED_EDGE('',*,*,#211,.F.);
#275=ORIENTED_EDGE('',*,*,#212,.F.);
#276=ORIENTED_EDGE('',*,*,#206,.F.);
#277=ORIENTED_EDGE('',*,*,#212,.T.);
#278=ORIENTED_EDGE('',*,*,#213,.T.);
#279=ORIENTED_EDGE('',*,*,#214,.T.);
#280=ORIENTED_EDGE('',*,*,#207,.T.);
#281=ORIENTED_EDGE('',*,*,#190,.F.);
#282=ORIENTED_EDGE('',*,*,#197,.T.);
#283=ORIENTED_EDGE('',*,*,#215,.T.);
#284=ORIENTED_EDGE('',*,*,#216,.T.);
#285=ORIENTED_EDGE('',*,*,#213,.F.);
#286=ORIENTED_EDGE('',*,*,#211,.T.);
#287=ORIENTED_EDGE('',*,*,#217,.T.);
#288=ORIENTED_EDGE('',*,*,#218,.T.);
#289=ORIENTED_EDGE('',*,*,#219,.T.);
#290=ORIENTED_EDGE('',*,*,#220,.T.);
#291=ORIENTED_EDGE('',*,*,#215,.F.);
#292=ORIENTED_EDGE('',*,*,#196,.F.);
#293=ORIENTED_EDGE('',*,*,#191,.F.);
#294=ORIENTED_EDGE('',*,*,#218,.F.);
#295=ORIENTED_EDGE('',*,*,#221,.F.);
#296=ORIENTED_EDGE('',*,*,#222,.T.);
#297=ORIENTED_EDGE('',*,*,#200,.F.);
#298=ORIENTED_EDGE('',*,*,#198,.T.);
#299=ORIENTED_EDGE('',*,*,#185,.T.);
#300=ORIENTED_EDGE('',*,*,#182,.T.);
#301=ORIENTED_EDGE('',*,*,#179,.T.);
#302=ORIENTED_EDGE('',*,*,#188,.T.);
#303=ORIENTED_EDGE('',*,*,#223,.T.);
#304=ORIENTED_EDGE('',*,*,#221,.T.);
#305=ORIENTED_EDGE('',*,*,#217,.F.);
#306=ORIENTED_EDGE('',*,*,#210,.F.);
#307=ORIENTED_EDGE('',*,*,#204,.F.);
#308=ORIENTED_EDGE('',*,*,#208,.T.);
#309=ORIENTED_EDGE('',*,*,#214,.F.);
#310=ORIENTED_EDGE('',*,*,#216,.F.);
#311=ORIENTED_EDGE('',*,*,#220,.F.);
#312=ORIENTED_EDGE('',*,*,#224,.T.);
#313=ORIENTED_EDGE('',*,*,#201,.F.);
#314=ORIENTED_EDGE('',*,*,#222,.F.);
#315=ORIENTED_EDGE('',*,*,#223,.F.);
#316=ORIENTED_EDGE('',*,*,#209,.F.);
#317=ORIENTED_EDGE('',*,*,#205,.F.);
#318=ORIENTED_EDGE('',*,*,#224,.F.);
#319=ORIENTED_EDGE('',*,*,#219,.F.);
#320=ORIENTED_EDGE('',*,*,#195,.F.);
#321=CYLINDRICAL_SURFACE('',#367,4.5);
#322=CYLINDRICAL_SURFACE('',#371,4.5);
#323=CYLINDRICAL_SURFACE('',#375,5.);
#324=CYLINDRICAL_SURFACE('',#381,5.);
#325=CYLINDRICAL_SURFACE('',#383,5.);
#326=CYLINDRICAL_SURFACE('',#389,5.);
#327=CYLINDRICAL_SURFACE('',#394,6.);
#328=CYLINDRICAL_SURFACE('',#397,3.32087178164249);
#329=ADVANCED_FACE('',(#27),#321,.F.);
#330=ADVANCED_FACE('',(#28),#17,.F.);
#331=ADVANCED_FACE('',(#29),#322,.F.);
#332=ADVANCED_FACE('',(#30),#18,.F.);
#333=ADVANCED_FACE('',(#31),#323,.T.);
#334=ADVANCED_FACE('',(#32,#15),#19,.T.);
#335=ADVANCED_FACE('',(#33),#20,.T.);
#336=ADVANCED_FACE('',(#34),#324,.T.);
#337=ADVANCED_FACE('',(#35),#325,.T.);
#338=ADVANCED_FACE('',(#36),#21,.T.);
#339=ADVANCED_FACE('',(#37),#22,.T.);
#340=ADVANCED_FACE('',(#38),#326,.T.);
#341=ADVANCED_FACE('',(#39),#23,.T.);
#342=ADVANCED_FACE('',(#40),#327,.T.);
#343=ADVANCED_FACE('',(#41,#16),#24,.T.);
#344=ADVANCED_FACE('',(#42),#328,.T.);
#345=ADVANCED_FACE('',(#43),#25,.T.);
#346=ADVANCED_FACE('',(#44),#26,.F.);
#347=CLOSED_SHELL('',(#329,#330,#331,#332,#333,#334,#335,#336,#337,#338,
#339,#340,#341,#342,#343,#344,#345,#346));
#348=DERIVED_UNIT_ELEMENT(#350,1.);
#349=DERIVED_UNIT_ELEMENT(#607,3.);
#350=(
MASS_UNIT()
NAMED_UNIT(*)
SI_UNIT($,.GRAM.)
);
#351=DERIVED_UNIT((#348,#349));
#352=MEASURE_REPRESENTATION_ITEM('density measure',
POSITIVE_RATIO_MEASURE(8.),#351);
#353=PROPERTY_DEFINITION_REPRESENTATION(#358,#355);
#354=PROPERTY_DEFINITION_REPRESENTATION(#359,#356);
#355=REPRESENTATION('material name',(#357),#604);
#356=REPRESENTATION('density',(#352),#604);
#357=DESCRIPTIVE_REPRESENTATION_ITEM('Stal nierdzewna',
'Stal nierdzewna');
#358=PROPERTY_DEFINITION('material property','material name',#614);
#359=PROPERTY_DEFINITION('material property','density of part',#614);
#360=DATE_TIME_ROLE('creation_date');
#361=APPLIED_DATE_AND_TIME_ASSIGNMENT(#362,#360,(#614));
#362=DATE_AND_TIME(#363,#364);
#363=CALENDAR_DATE(2020,16,10);
#364=LOCAL_TIME(0,0,0.,#365);
#365=COORDINATED_UNIVERSAL_TIME_OFFSET(0,0,.BEHIND.);
#366=AXIS2_PLACEMENT_3D('placement',#503,#401,#402);
#367=AXIS2_PLACEMENT_3D('',#504,#403,#404);
#368=AXIS2_PLACEMENT_3D('',#507,#405,#406);
#369=AXIS2_PLACEMENT_3D('',#511,#408,#409);
#370=AXIS2_PLACEMENT_3D('',#513,#411,#412);
#371=AXIS2_PLACEMENT_3D('',#519,#416,#417);
#372=AXIS2_PLACEMENT_3D('',#521,#418,#419);
#373=AXIS2_PLACEMENT_3D('',#523,#420,#421);
#374=AXIS2_PLACEMENT_3D('',#525,#423,#424);
#375=AXIS2_PLACEMENT_3D('',#528,#427,#428);
#376=AXIS2_PLACEMENT_3D('',#531,#429,#430);
#377=AXIS2_PLACEMENT_3D('',#535,#432,#433);
#378=AXIS2_PLACEMENT_3D('',#537,#435,#436);
#379=AXIS2_PLACEMENT_3D('',#541,#438,#439);
#380=AXIS2_PLACEMENT_3D('',#547,#443,#444);
#381=AXIS2_PLACEMENT_3D('',#551,#447,#448);
#382=AXIS2_PLACEMENT_3D('',#553,#449,#450);
#383=AXIS2_PLACEMENT_3D('',#555,#452,#453);
#384=AXIS2_PLACEMENT_3D('',#558,#454,#455);
#385=AXIS2_PLACEMENT_3D('',#562,#457,#458);
#386=AXIS2_PLACEMENT_3D('',#564,#460,#461);
#387=AXIS2_PLACEMENT_3D('',#570,#465,#466);
#388=AXIS2_PLACEMENT_3D('',#577,#470,#471);
#389=AXIS2_PLACEMENT_3D('',#578,#472,#473);
#390=AXIS2_PLACEMENT_3D('',#581,#475,#476);
#391=AXIS2_PLACEMENT_3D('',#582,#477,#478);
#392=AXIS2_PLACEMENT_3D('',#584,#479,#480);
#393=AXIS2_PLACEMENT_3D('',#587,#482,#483);
#394=AXIS2_PLACEMENT_3D('',#589,#485,#486);
#395=AXIS2_PLACEMENT_3D('',#591,#487,#488);
#396=AXIS2_PLACEMENT_3D('',#593,#490,#491);
#397=AXIS2_PLACEMENT_3D('',#597,#494,#495);
#398=AXIS2_PLACEMENT_3D('',#598,#496,#497);
#399=AXIS2_PLACEMENT_3D('',#599,#498,#499);
#400=AXIS2_PLACEMENT_3D('',#601,#501,#502);
#401=DIRECTION('axis',(0.,0.,1.));
#402=DIRECTION('refdir',(1.,0.,0.));
#403=DIRECTION('center_axis',(0.,-1.,0.));
#404=DIRECTION('ref_axis',(0.,0.,1.));
#405=DIRECTION('center_axis',(0.,1.,0.));
#406=DIRECTION('ref_axis',(0.,0.,1.));
#407=DIRECTION('',(0.,-1.,0.));
#408=DIRECTION('center_axis',(0.,-1.,0.));
#409=DIRECTION('ref_axis',(0.,0.,1.));
#410=DIRECTION('',(0.,-1.,0.));
#411=DIRECTION('center_axis',(-4.93432455388958E-16,0.,-1.));
#412=DIRECTION('ref_axis',(1.,0.,-4.93432455388958E-16));
#413=DIRECTION('',(-1.,0.,4.93432455388958E-16));
#414=DIRECTION('',(1.,0.,-4.93432455388958E-16));
#415=DIRECTION('',(0.,-1.,0.));
#416=DIRECTION('center_axis',(0.,-1.,0.));
#417=DIRECTION('ref_axis',(-4.93432455388959E-16,0.,-1.));
#418=DIRECTION('center_axis',(0.,1.,0.));
#419=DIRECTION('ref_axis',(-4.93432455388959E-16,0.,-1.));
#420=DIRECTION('center_axis',(0.,-1.,0.));
#421=DIRECTION('ref_axis',(-4.93432455388959E-16,0.,-1.));
#422=DIRECTION('',(0.,-1.,0.));
#423=DIRECTION('center_axis',(2.46716227694479E-16,0.,1.));
#424=DIRECTION('ref_axis',(-1.,0.,2.46716227694479E-16));
#425=DIRECTION('',(1.,0.,-2.46716227694479E-16));
#426=DIRECTION('',(-1.,0.,2.46716227694479E-16));
#427=DIRECTION('center_axis',(0.,-1.,0.));
#428=DIRECTION('ref_axis',(-0.707106781186547,0.,0.707106781186547));
#429=DIRECTION('center_axis',(0.,1.,0.));
#430=DIRECTION('ref_axis',(-0.707106781186547,0.,0.707106781186547));
#431=DIRECTION('',(0.,1.,0.));
#432=DIRECTION('center_axis',(0.,-1.,0.));
#433=DIRECTION('ref_axis',(-0.707106781186547,0.,0.707106781186547));
#434=DIRECTION('',(0.,-1.,0.));
#435=DIRECTION('center_axis',(0.,-1.,0.));
#436=DIRECTION('ref_axis',(1.,0.,0.));
#437=DIRECTION('',(0.,0.,1.));
#438=DIRECTION('center_axis',(0.,1.,0.));
#439=DIRECTION('ref_axis',(-0.707106781186547,0.,-0.707106781186547));
#440=DIRECTION('',(1.,0.,0.));
#441=DIRECTION('',(0.,0.,1.));
#442=DIRECTION('',(1.,0.,0.));
#443=DIRECTION('center_axis',(-1.,0.,0.));
#444=DIRECTION('ref_axis',(0.,-1.,0.));
#445=DIRECTION('',(0.,0.,1.));
#446=DIRECTION('',(0.,1.,0.));
#447=DIRECTION('center_axis',(0.,-1.,0.));
#448=DIRECTION('ref_axis',(-0.707106781186547,0.,-0.707106781186547));
#449=DIRECTION('center_axis',(0.,-1.,0.));
#450=DIRECTION('ref_axis',(-0.707106781186547,0.,-0.707106781186547));
#451=DIRECTION('',(0.,-1.,0.));
#452=DIRECTION('center_axis',(0.0839212686141681,0.996472388314994,0.));
#453=DIRECTION('ref_axis',(0.704612383042687,-0.059341298122856,-0.707106781186547));
#454=DIRECTION('center_axis',(-0.0839212686141675,-0.996472388314994,0.));
#455=DIRECTION('ref_axis',(0.704612383042687,-0.059341298122856,-0.707106781186547));
#456=DIRECTION('',(-0.0839212686141681,-0.996472388314994,0.));
#457=DIRECTION('center_axis',(0.0839212686141674,0.996472388314994,0.));
#458=DIRECTION('ref_axis',(0.704612383042687,-0.059341298122856,-0.707106781186547));
#459=DIRECTION('',(0.0839212686141681,0.996472388314994,0.));
#460=DIRECTION('center_axis',(0.996472388314994,-0.0839212686141681,0.));
#461=DIRECTION('ref_axis',(0.0839212686141681,0.996472388314994,0.));
#462=DIRECTION('',(0.,0.,1.));
#463=DIRECTION('',(0.0839212686141681,0.996472388314994,0.));
#464=DIRECTION('',(0.,0.,1.));
#465=DIRECTION('center_axis',(0.0839212686141675,0.996472388314994,0.));
#466=DIRECTION('ref_axis',(-0.996472388314994,0.0839212686141675,0.));
#467=DIRECTION('',(-0.996472388314994,0.0839212686141675,0.));
#468=DIRECTION('',(0.,0.,1.));
#469=DIRECTION('',(-0.996472388314994,0.0839212686141675,0.));
#470=DIRECTION('center_axis',(-0.0839212686141675,-0.996472388314994,0.));
#471=DIRECTION('ref_axis',(0.704612383042687,-0.059341298122856,0.707106781186547));
#472=DIRECTION('center_axis',(0.0839212686141681,0.996472388314994,0.));
#473=DIRECTION('ref_axis',(0.704612383042687,-0.059341298122856,0.707106781186547));
#474=DIRECTION('',(-0.0839212686141681,-0.996472388314994,0.));
#475=DIRECTION('center_axis',(0.0839212686141674,0.996472388314994,0.));
#476=DIRECTION('ref_axis',(0.704612383042687,-0.059341298122856,0.707106781186547));
#477=DIRECTION('center_axis',(0.,0.,1.));
#478=DIRECTION('ref_axis',(1.,0.,0.));
#479=DIRECTION('center_axis',(0.,0.,1.));
#480=DIRECTION('ref_axis',(0.,-1.,0.));
#481=DIRECTION('',(0.996472388314994,-0.0839212686141674,0.));
#482=DIRECTION('center_axis',(0.,0.,1.));
#483=DIRECTION('ref_axis',(0.0839212686141672,0.996472388314994,0.));
#484=DIRECTION('',(-1.,0.,0.));
#485=DIRECTION('center_axis',(0.,0.,1.));
#486=DIRECTION('ref_axis',(0.,-1.,0.));
#487=DIRECTION('center_axis',(0.,0.,1.));
#488=DIRECTION('ref_axis',(0.,-1.,0.));
#489=DIRECTION('',(0.,0.,1.));
#490=DIRECTION('center_axis',(0.,1.,0.));
#491=DIRECTION('ref_axis',(-1.,0.,0.));
#492=DIRECTION('',(0.,0.,1.));
#493=DIRECTION('',(-1.,0.,0.));
#494=DIRECTION('center_axis',(0.,0.,1.));
#495=DIRECTION('ref_axis',(0.0839212686141672,0.996472388314994,0.));
#496=DIRECTION('center_axis',(0.,0.,1.));
#497=DIRECTION('ref_axis',(0.0839212686141672,0.996472388314994,0.));
#498=DIRECTION('center_axis',(-0.0839212686141674,-0.996472388314994,0.));
#499=DIRECTION('ref_axis',(0.996472388314994,-0.0839212686141674,0.));
#500=DIRECTION('',(0.996472388314994,-0.0839212686141674,0.));
#501=DIRECTION('center_axis',(0.,0.,1.));
#502=DIRECTION('ref_axis',(1.,0.,0.));
#503=CARTESIAN_POINT('',(0.,0.,0.));
#504=CARTESIAN_POINT('Origin',(19.,3.,17.5));
#505=CARTESIAN_POINT('',(19.,0.,22.));
#506=CARTESIAN_POINT('',(19.,0.,13.));
#507=CARTESIAN_POINT('Origin',(19.,0.,17.5));
#508=CARTESIAN_POINT('',(19.,3.,22.));
#509=CARTESIAN_POINT('',(19.,3.,22.));
#510=CARTESIAN_POINT('',(19.,3.,13.));
#511=CARTESIAN_POINT('Origin',(19.,3.,17.5));
#512=CARTESIAN_POINT('',(19.,3.,13.));
#513=CARTESIAN_POINT('Origin',(10.,3.,13.));
#514=CARTESIAN_POINT('',(10.,0.,13.));
#515=CARTESIAN_POINT('',(5.,0.,13.));
#516=CARTESIAN_POINT('',(10.,3.,13.));
#517=CARTESIAN_POINT('',(19.5,3.,13.));
#518=CARTESIAN_POINT('',(10.,3.,13.));
#519=CARTESIAN_POINT('Origin',(10.,3.,17.5));
#520=CARTESIAN_POINT('',(10.,0.,22.));
#521=CARTESIAN_POINT('Origin',(10.,0.,17.5));
#522=CARTESIAN_POINT('',(10.,3.,22.));
#523=CARTESIAN_POINT('Origin',(10.,3.,17.5));
#524=CARTESIAN_POINT('',(10.,3.,22.));
#525=CARTESIAN_POINT('Origin',(19.,3.,22.));
#526=CARTESIAN_POINT('',(9.5,0.,22.));
#527=CARTESIAN_POINT('',(24.,3.,22.));
#528=CARTESIAN_POINT('Origin',(5.,2.62792868652533,30.));
#529=CARTESIAN_POINT('',(0.,0.,30.));
#530=CARTESIAN_POINT('',(5.,0.,35.));
#531=CARTESIAN_POINT('Origin',(5.,0.,30.));
#532=CARTESIAN_POINT('',(5.,3.,35.));
#533=CARTESIAN_POINT('',(5.,2.62792868652533,35.));
#534=CARTESIAN_POINT('',(0.,3.,30.));
#535=CARTESIAN_POINT('Origin',(5.,3.,30.));
#536=CARTESIAN_POINT('',(0.,2.62792868652533,30.));
#537=CARTESIAN_POINT('Origin',(0.,0.,0.));
#538=CARTESIAN_POINT('',(0.,0.,5.));
#539=CARTESIAN_POINT('',(0.,0.,0.));
#540=CARTESIAN_POINT('',(5.,0.,0.));
#541=CARTESIAN_POINT('Origin',(5.,0.,5.));
#542=CARTESIAN_POINT('',(27.8311385857029,0.,0.));
#543=CARTESIAN_POINT('',(0.,0.,0.));
#544=CARTESIAN_POINT('',(27.8311385857029,0.,35.));
#545=CARTESIAN_POINT('',(27.8311385857029,0.,0.));
#546=CARTESIAN_POINT('',(0.,0.,35.));
#547=CARTESIAN_POINT('Origin',(0.,3.,0.));
#548=CARTESIAN_POINT('',(0.,3.,5.));
#549=CARTESIAN_POINT('',(0.,3.,0.));
#550=CARTESIAN_POINT('',(0.,2.62792868652533,5.));
#551=CARTESIAN_POINT('Origin',(5.,2.62792868652533,5.));
#552=CARTESIAN_POINT('',(5.,3.,0.));
#553=CARTESIAN_POINT('Origin',(5.,3.,5.));
#554=CARTESIAN_POINT('',(5.,2.62792868652533,0.));
#555=CARTESIAN_POINT('Origin',(44.7730493618858,0.50480284238467,5.));
#556=CARTESIAN_POINT('',(45.017638058425,3.40902350801582,0.));
#557=CARTESIAN_POINT('',(50.,2.98941716494498,5.));
#558=CARTESIAN_POINT('Origin',(45.017638058425,3.40902350801582,5.));
#559=CARTESIAN_POINT('',(49.7482361941575,5.55111512312578E-16,5.));
#560=CARTESIAN_POINT('',(49.7554113034608,0.0851964993138295,5.));
#561=CARTESIAN_POINT('',(44.7658742525825,0.419606343070837,0.));
#562=CARTESIAN_POINT('Origin',(44.7658742525825,0.419606343070829,5.));
#563=CARTESIAN_POINT('',(44.7730493618858,0.50480284238467,0.));
#564=CARTESIAN_POINT('Origin',(49.7482361941575,5.55111512312578E-16,0.));
#565=CARTESIAN_POINT('',(50.,2.98941716494498,30.));
#566=CARTESIAN_POINT('',(50.,2.98941716494498,0.));
#567=CARTESIAN_POINT('',(49.7482361941575,5.55111512312578E-16,30.));
#568=CARTESIAN_POINT('',(49.7554113034608,0.0851964993138297,30.));
#569=CARTESIAN_POINT('',(49.7482361941575,5.55111512312578E-16,0.));
#570=CARTESIAN_POINT('Origin',(50.,2.98941716494498,0.));
#571=CARTESIAN_POINT('',(32.0634970103301,4.5,0.));
#572=CARTESIAN_POINT('',(50.,2.98941716494498,0.));
#573=CARTESIAN_POINT('',(32.0634970103301,4.5,35.));
#574=CARTESIAN_POINT('',(32.0634970103301,4.5,0.));
#575=CARTESIAN_POINT('',(45.017638058425,3.40902350801582,35.));
#576=CARTESIAN_POINT('',(50.,2.98941716494498,35.));
#577=CARTESIAN_POINT('Origin',(45.017638058425,3.40902350801582,30.));
#578=CARTESIAN_POINT('Origin',(44.7730493618858,0.50480284238467,30.));
#579=CARTESIAN_POINT('',(44.7658742525825,0.419606343070837,35.));
#580=CARTESIAN_POINT('',(44.7730493618858,0.50480284238467,35.));
#581=CARTESIAN_POINT('Origin',(44.7658742525825,0.419606343070829,30.));
#582=CARTESIAN_POINT('Origin',(25.,2.25585737305066,35.));
#583=CARTESIAN_POINT('',(31.8117332044876,1.51058283505501,35.));
#584=CARTESIAN_POINT('Origin',(27.8311385857029,6.,35.));
#585=CARTESIAN_POINT('',(31.8117332044876,1.51058283505501,35.));
#586=CARTESIAN_POINT('',(29.,3.,35.));
#587=CARTESIAN_POINT('Origin',(31.7848052375097,1.19084296445884,35.));
#588=CARTESIAN_POINT('',(29.,3.,35.));
#589=CARTESIAN_POINT('Origin',(27.8311385857029,6.,0.));
#590=CARTESIAN_POINT('',(31.8117332044876,1.51058283505501,0.));
#591=CARTESIAN_POINT('Origin',(27.8311385857029,6.,0.));
#592=CARTESIAN_POINT('',(31.8117332044876,1.51058283505501,0.));
#593=CARTESIAN_POINT('Origin',(29.,3.,0.));
#594=CARTESIAN_POINT('',(29.,3.,0.));
#595=CARTESIAN_POINT('',(29.,3.,0.));
#596=CARTESIAN_POINT('',(29.,3.,0.));
#597=CARTESIAN_POINT('Origin',(31.7848052375097,1.19084296445884,0.));
#598=CARTESIAN_POINT('Origin',(31.7848052375097,1.19084296445884,0.));
#599=CARTESIAN_POINT('Origin',(31.8117332044876,1.51058283505501,0.));
#600=CARTESIAN_POINT('',(31.8117332044876,1.51058283505501,0.));
#601=CARTESIAN_POINT('Origin',(25.,2.25585737305066,0.));
#602=UNCERTAINTY_MEASURE_WITH_UNIT(LENGTH_MEASURE(0.01),#606,
'DISTANCE_ACCURACY_VALUE',
'Maximum model space distance between geometric entities at asserted c
onnectivities');
#603=UNCERTAINTY_MEASURE_WITH_UNIT(LENGTH_MEASURE(0.01),#606,
'DISTANCE_ACCURACY_VALUE',
'Maximum model space distance between geometric entities at asserted c
onnectivities');
#604=(
GEOMETRIC_REPRESENTATION_CONTEXT(3)
GLOBAL_UNCERTAINTY_ASSIGNED_CONTEXT((#602))
GLOBAL_UNIT_ASSIGNED_CONTEXT((#606,#608,#609))
REPRESENTATION_CONTEXT('','3D')
);
#605=(
GEOMETRIC_REPRESENTATION_CONTEXT(3)
GLOBAL_UNCERTAINTY_ASSIGNED_CONTEXT((#603))
GLOBAL_UNIT_ASSIGNED_CONTEXT((#606,#608,#609))
REPRESENTATION_CONTEXT('','3D')
);
#606=(
LENGTH_UNIT()
NAMED_UNIT(*)
SI_UNIT(.MILLI.,.METRE.)
);
#607=(
LENGTH_UNIT()
NAMED_UNIT(*)
SI_UNIT(.CENTI.,.METRE.)
);
#608=(
NAMED_UNIT(*)
PLANE_ANGLE_UNIT()
SI_UNIT($,.RADIAN.)
);
#609=(
NAMED_UNIT(*)
SI_UNIT($,.STERADIAN.)
SOLID_ANGLE_UNIT()
);
#610=SHAPE_DEFINITION_REPRESENTATION(#611,#612);
#611=PRODUCT_DEFINITION_SHAPE('',$,#614);
#612=SHAPE_REPRESENTATION('',(#366),#604);
#613=PRODUCT_DEFINITION_CONTEXT('part definition',#618,'design');
#614=PRODUCT_DEFINITION('ZM_ZMO','ZM_ZMO',#615,#613);
#615=PRODUCT_DEFINITION_FORMATION('',$,#620);
#616=PRODUCT_RELATED_PRODUCT_CATEGORY('ZM_ZMO','ZM_ZMO',(#620));
#617=APPLICATION_PROTOCOL_DEFINITION('international standard',
'automotive_design',2009,#618);
#618=APPLICATION_CONTEXT(
'Core Data for Automotive Mechanical Design Process');
#619=PRODUCT_CONTEXT('part definition',#618,'mechanical');
#620=PRODUCT('ZM_ZMO','ZM_ZMO',$,(#619));
#621=PRESENTATION_STYLE_ASSIGNMENT((#622));
#622=SURFACE_STYLE_USAGE(.BOTH.,#625);
#623=SURFACE_STYLE_RENDERING_WITH_PROPERTIES($,#629,(#624));
#624=SURFACE_STYLE_TRANSPARENT(0.);
#625=SURFACE_SIDE_STYLE('',(#626,#623));
#626=SURFACE_STYLE_FILL_AREA(#627);
#627=FILL_AREA_STYLE('',(#628));
#628=FILL_AREA_STYLE_COLOUR('',#629);
#629=COLOUR_RGB('',0.745098039215686,0.737254901960784,0.729411764705882);
ENDSEC;
END-ISO-10303-21;
