ISO-10303-21;
HEADER;
/* Generated by software containing ST-Developer
 * from STEP Tools, Inc. (www.steptools.com) 
 */

FILE_DESCRIPTION(
/* description */ (''),
/* implementation_level */ '2;1');

FILE_NAME(
/* name */ 
'Z:\\DOKUMENTACJA TECHNICZNA\\XIII- Elementy no\X2\015B\X0\ne i monta\X2\017C\X0\o
we- zawiesia sufitowe\\UDFB\\UDFB7.stp',
/* time_stamp */ '2020-12-10T10:08:12+01:00',
/* author */ ('stanislaw.luczak'),
/* organization */ (''),
/* preprocessor_version */ 'ST-DEVELOPER v18.1',
/* originating_system */ 'Autodesk Inventor 2021',
/* authorisation */ '');

FILE_SCHEMA (('AUTOMOTIVE_DESIGN { 1 0 10303 214 3 1 1 }'));
ENDSEC;

DATA;
#10=MECHANICAL_DESIGN_GEOMETRIC_PRESENTATION_REPRESENTATION('',(#13),#721);
#11=SHAPE_REPRESENTATION_RELATIONSHIP('SRR','None',#728,#12);
#12=ADVANCED_BREP_SHAPE_REPRESENTATION('',(#14),#720);
#13=STYLED_ITEM('',(#737),#14);
#14=MANIFOLD_SOLID_BREP('Bry\X2\0142\X0\a1',#415);
#15=CYLINDRICAL_SURFACE('',#441,1.);
#16=CYLINDRICAL_SURFACE('',#446,1.7);
#17=CYLINDRICAL_SURFACE('',#451,1.);
#18=CYLINDRICAL_SURFACE('',#453,0.5);
#19=CYLINDRICAL_SURFACE('',#457,3.5);
#20=CYLINDRICAL_SURFACE('',#462,4.7);
#21=CYLINDRICAL_SURFACE('',#466,1.);
#22=CYLINDRICAL_SURFACE('',#472,1.);
#23=FACE_OUTER_BOUND('',#49,.T.);
#24=FACE_OUTER_BOUND('',#50,.T.);
#25=FACE_OUTER_BOUND('',#51,.T.);
#26=FACE_OUTER_BOUND('',#52,.T.);
#27=FACE_OUTER_BOUND('',#53,.T.);
#28=FACE_OUTER_BOUND('',#54,.T.);
#29=FACE_OUTER_BOUND('',#55,.T.);
#30=FACE_OUTER_BOUND('',#56,.T.);
#31=FACE_OUTER_BOUND('',#57,.T.);
#32=FACE_OUTER_BOUND('',#58,.T.);
#33=FACE_OUTER_BOUND('',#59,.T.);
#34=FACE_OUTER_BOUND('',#60,.T.);
#35=FACE_OUTER_BOUND('',#61,.T.);
#36=FACE_OUTER_BOUND('',#62,.T.);
#37=FACE_OUTER_BOUND('',#63,.T.);
#38=FACE_OUTER_BOUND('',#64,.T.);
#39=FACE_OUTER_BOUND('',#65,.T.);
#40=FACE_OUTER_BOUND('',#66,.T.);
#41=FACE_OUTER_BOUND('',#67,.T.);
#42=FACE_OUTER_BOUND('',#68,.T.);
#43=FACE_OUTER_BOUND('',#69,.T.);
#44=FACE_OUTER_BOUND('',#70,.T.);
#45=FACE_OUTER_BOUND('',#71,.T.);
#46=FACE_OUTER_BOUND('',#72,.T.);
#47=FACE_OUTER_BOUND('',#73,.T.);
#48=FACE_OUTER_BOUND('',#74,.T.);
#49=EDGE_LOOP('',(#259,#260,#261,#262,#263,#264));
#50=EDGE_LOOP('',(#265,#266,#267,#268,#269,#270));
#51=EDGE_LOOP('',(#271,#272,#273,#274));
#52=EDGE_LOOP('',(#275,#276,#277,#278));
#53=EDGE_LOOP('',(#279,#280,#281,#282));
#54=EDGE_LOOP('',(#283,#284,#285,#286));
#55=EDGE_LOOP('',(#287,#288,#289,#290));
#56=EDGE_LOOP('',(#291,#292,#293,#294));
#57=EDGE_LOOP('',(#295,#296,#297,#298));
#58=EDGE_LOOP('',(#299,#300,#301,#302));
#59=EDGE_LOOP('',(#303,#304,#305,#306));
#60=EDGE_LOOP('',(#307,#308,#309,#310));
#61=EDGE_LOOP('',(#311,#312,#313,#314));
#62=EDGE_LOOP('',(#315,#316,#317,#318));
#63=EDGE_LOOP('',(#319,#320,#321,#322));
#64=EDGE_LOOP('',(#323,#324,#325,#326));
#65=EDGE_LOOP('',(#327,#328,#329,#330));
#66=EDGE_LOOP('',(#331,#332,#333,#334));
#67=EDGE_LOOP('',(#335,#336,#337,#338));
#68=EDGE_LOOP('',(#339,#340,#341,#342));
#69=EDGE_LOOP('',(#343,#344,#345,#346,#347,#348));
#70=EDGE_LOOP('',(#349,#350,#351,#352));
#71=EDGE_LOOP('',(#353,#354,#355,#356));
#72=EDGE_LOOP('',(#357,#358,#359,#360,#361,#362));
#73=EDGE_LOOP('',(#363,#364,#365,#366));
#74=EDGE_LOOP('',(#367,#368,#369,#370));
#75=LINE('',#609,#115);
#76=LINE('',#611,#116);
#77=LINE('',#613,#117);
#78=LINE('',#616,#118);
#79=LINE('',#622,#119);
#80=LINE('',#626,#120);
#81=LINE('',#628,#121);
#82=LINE('',#629,#122);
#83=LINE('',#631,#123);
#84=LINE('',#632,#124);
#85=LINE('',#634,#125);
#86=LINE('',#640,#126);
#87=LINE('',#643,#127);
#88=LINE('',#647,#128);
#89=LINE('',#649,#129);
#90=LINE('',#651,#130);
#91=LINE('',#653,#131);
#92=LINE('',#656,#132);
#93=LINE('',#659,#133);
#94=LINE('',#661,#134);
#95=LINE('',#662,#135);
#96=LINE('',#665,#136);
#97=LINE('',#666,#137);
#98=LINE('',#669,#138);
#99=LINE('',#670,#139);
#100=LINE('',#676,#140);
#101=LINE('',#679,#141);
#102=LINE('',#683,#142);
#103=LINE('',#686,#143);
#104=LINE('',#687,#144);
#105=LINE('',#691,#145);
#106=LINE('',#692,#146);
#107=LINE('',#693,#147);
#108=LINE('',#699,#148);
#109=LINE('',#702,#149);
#110=LINE('',#705,#150);
#111=LINE('',#708,#151);
#112=LINE('',#709,#152);
#113=LINE('',#712,#153);
#114=LINE('',#715,#154);
#115=VECTOR('',#483,13.5);
#116=VECTOR('',#484,14.);
#117=VECTOR('',#485,13.5);
#118=VECTOR('',#488,12.);
#119=VECTOR('',#493,12.);
#120=VECTOR('',#496,13.5);
#121=VECTOR('',#497,14.);
#122=VECTOR('',#498,13.5);
#123=VECTOR('',#501,1.2);
#124=VECTOR('',#502,1.2);
#125=VECTOR('',#505,1.2);
#126=VECTOR('',#512,1.2);
#127=VECTOR('',#515,14.);
#128=VECTOR('',#520,1.2);
#129=VECTOR('',#523,1.2);
#130=VECTOR('',#526,1.2);
#131=VECTOR('',#529,1.2);
#132=VECTOR('',#534,14.);
#133=VECTOR('',#537,1.8);
#134=VECTOR('',#538,14.);
#135=VECTOR('',#539,1.8);
#136=VECTOR('',#542,1.8);
#137=VECTOR('',#543,1.2);
#138=VECTOR('',#546,1.8);
#139=VECTOR('',#547,14.);
#140=VECTOR('',#554,14.);
#141=VECTOR('',#557,1.2);
#142=VECTOR('',#562,14.);
#143=VECTOR('',#567,1.2);
#144=VECTOR('',#568,1.2);
#145=VECTOR('',#571,1.2);
#146=VECTOR('',#572,2.5);
#147=VECTOR('',#573,2.5);
#148=VECTOR('',#580,1.2);
#149=VECTOR('',#583,12.);
#150=VECTOR('',#586,2.5);
#151=VECTOR('',#589,1.2);
#152=VECTOR('',#590,2.5);
#153=VECTOR('',#593,1.2);
#154=VECTOR('',#598,12.);
#155=CIRCLE('',#436,1.);
#156=CIRCLE('',#437,1.);
#157=CIRCLE('',#439,1.);
#158=CIRCLE('',#440,1.);
#159=CIRCLE('',#444,1.7);
#160=CIRCLE('',#445,0.5);
#161=CIRCLE('',#447,1.7);
#162=CIRCLE('',#449,0.5);
#163=CIRCLE('',#458,3.5);
#164=CIRCLE('',#459,3.5);
#165=CIRCLE('',#461,4.7);
#166=CIRCLE('',#463,4.7);
#167=CIRCLE('',#467,1.);
#168=CIRCLE('',#468,1.);
#169=CIRCLE('',#470,1.);
#170=CIRCLE('',#473,1.);
#171=VERTEX_POINT('',#605);
#172=VERTEX_POINT('',#606);
#173=VERTEX_POINT('',#608);
#174=VERTEX_POINT('',#610);
#175=VERTEX_POINT('',#612);
#176=VERTEX_POINT('',#614);
#177=VERTEX_POINT('',#618);
#178=VERTEX_POINT('',#619);
#179=VERTEX_POINT('',#621);
#180=VERTEX_POINT('',#623);
#181=VERTEX_POINT('',#625);
#182=VERTEX_POINT('',#627);
#183=VERTEX_POINT('',#636);
#184=VERTEX_POINT('',#638);
#185=VERTEX_POINT('',#642);
#186=VERTEX_POINT('',#646);
#187=VERTEX_POINT('',#658);
#188=VERTEX_POINT('',#660);
#189=VERTEX_POINT('',#664);
#190=VERTEX_POINT('',#668);
#191=VERTEX_POINT('',#672);
#192=VERTEX_POINT('',#674);
#193=VERTEX_POINT('',#678);
#194=VERTEX_POINT('',#682);
#195=VERTEX_POINT('',#689);
#196=VERTEX_POINT('',#690);
#197=VERTEX_POINT('',#695);
#198=VERTEX_POINT('',#697);
#199=VERTEX_POINT('',#701);
#200=VERTEX_POINT('',#703);
#201=VERTEX_POINT('',#707);
#202=VERTEX_POINT('',#711);
#203=EDGE_CURVE('',#171,#172,#155,.T.);
#204=EDGE_CURVE('',#173,#172,#75,.T.);
#205=EDGE_CURVE('',#174,#173,#76,.T.);
#206=EDGE_CURVE('',#174,#175,#77,.T.);
#207=EDGE_CURVE('',#175,#176,#156,.T.);
#208=EDGE_CURVE('',#176,#171,#78,.T.);
#209=EDGE_CURVE('',#177,#178,#157,.T.);
#210=EDGE_CURVE('',#179,#178,#79,.T.);
#211=EDGE_CURVE('',#179,#180,#158,.T.);
#212=EDGE_CURVE('',#181,#180,#80,.T.);
#213=EDGE_CURVE('',#181,#182,#81,.T.);
#214=EDGE_CURVE('',#182,#177,#82,.T.);
#215=EDGE_CURVE('',#178,#171,#83,.T.);
#216=EDGE_CURVE('',#177,#172,#84,.T.);
#217=EDGE_CURVE('',#173,#182,#85,.T.);
#218=EDGE_CURVE('',#173,#183,#159,.T.);
#219=EDGE_CURVE('',#182,#184,#160,.T.);
#220=EDGE_CURVE('',#183,#184,#86,.T.);
#221=EDGE_CURVE('',#185,#183,#87,.T.);
#222=EDGE_CURVE('',#174,#185,#161,.T.);
#223=EDGE_CURVE('',#185,#186,#88,.T.);
#224=EDGE_CURVE('',#181,#186,#162,.T.);
#225=EDGE_CURVE('',#174,#181,#89,.T.);
#226=EDGE_CURVE('',#180,#175,#90,.T.);
#227=EDGE_CURVE('',#179,#176,#91,.T.);
#228=EDGE_CURVE('',#186,#184,#92,.T.);
#229=EDGE_CURVE('',#187,#186,#93,.T.);
#230=EDGE_CURVE('',#187,#188,#94,.T.);
#231=EDGE_CURVE('',#188,#184,#95,.T.);
#232=EDGE_CURVE('',#189,#185,#96,.T.);
#233=EDGE_CURVE('',#189,#187,#97,.T.);
#234=EDGE_CURVE('',#190,#183,#98,.T.);
#235=EDGE_CURVE('',#189,#190,#99,.T.);
#236=EDGE_CURVE('',#191,#189,#163,.T.);
#237=EDGE_CURVE('',#192,#190,#164,.T.);
#238=EDGE_CURVE('',#191,#192,#100,.T.);
#239=EDGE_CURVE('',#191,#193,#101,.T.);
#240=EDGE_CURVE('',#193,#187,#165,.T.);
#241=EDGE_CURVE('',#193,#194,#102,.T.);
#242=EDGE_CURVE('',#194,#188,#166,.T.);
#243=EDGE_CURVE('',#190,#188,#103,.T.);
#244=EDGE_CURVE('',#192,#194,#104,.T.);
#245=EDGE_CURVE('',#195,#196,#105,.T.);
#246=EDGE_CURVE('',#196,#192,#106,.T.);
#247=EDGE_CURVE('',#195,#194,#107,.T.);
#248=EDGE_CURVE('',#196,#197,#167,.T.);
#249=EDGE_CURVE('',#198,#195,#168,.T.);
#250=EDGE_CURVE('',#198,#197,#108,.T.);
#251=EDGE_CURVE('',#199,#197,#109,.T.);
#252=EDGE_CURVE('',#199,#200,#169,.T.);
#253=EDGE_CURVE('',#200,#191,#110,.T.);
#254=EDGE_CURVE('',#201,#200,#111,.T.);
#255=EDGE_CURVE('',#201,#193,#112,.T.);
#256=EDGE_CURVE('',#202,#199,#113,.T.);
#257=EDGE_CURVE('',#201,#202,#170,.T.);
#258=EDGE_CURVE('',#202,#198,#114,.T.);
#259=ORIENTED_EDGE('',*,*,#203,.T.);
#260=ORIENTED_EDGE('',*,*,#204,.F.);
#261=ORIENTED_EDGE('',*,*,#205,.F.);
#262=ORIENTED_EDGE('',*,*,#206,.T.);
#263=ORIENTED_EDGE('',*,*,#207,.T.);
#264=ORIENTED_EDGE('',*,*,#208,.T.);
#265=ORIENTED_EDGE('',*,*,#209,.T.);
#266=ORIENTED_EDGE('',*,*,#210,.F.);
#267=ORIENTED_EDGE('',*,*,#211,.T.);
#268=ORIENTED_EDGE('',*,*,#212,.F.);
#269=ORIENTED_EDGE('',*,*,#213,.T.);
#270=ORIENTED_EDGE('',*,*,#214,.T.);
#271=ORIENTED_EDGE('',*,*,#203,.F.);
#272=ORIENTED_EDGE('',*,*,#215,.F.);
#273=ORIENTED_EDGE('',*,*,#209,.F.);
#274=ORIENTED_EDGE('',*,*,#216,.T.);
#275=ORIENTED_EDGE('',*,*,#216,.F.);
#276=ORIENTED_EDGE('',*,*,#214,.F.);
#277=ORIENTED_EDGE('',*,*,#217,.F.);
#278=ORIENTED_EDGE('',*,*,#204,.T.);
#279=ORIENTED_EDGE('',*,*,#218,.F.);
#280=ORIENTED_EDGE('',*,*,#217,.T.);
#281=ORIENTED_EDGE('',*,*,#219,.T.);
#282=ORIENTED_EDGE('',*,*,#220,.F.);
#283=ORIENTED_EDGE('',*,*,#205,.T.);
#284=ORIENTED_EDGE('',*,*,#218,.T.);
#285=ORIENTED_EDGE('',*,*,#221,.F.);
#286=ORIENTED_EDGE('',*,*,#222,.F.);
#287=ORIENTED_EDGE('',*,*,#222,.T.);
#288=ORIENTED_EDGE('',*,*,#223,.T.);
#289=ORIENTED_EDGE('',*,*,#224,.F.);
#290=ORIENTED_EDGE('',*,*,#225,.F.);
#291=ORIENTED_EDGE('',*,*,#226,.T.);
#292=ORIENTED_EDGE('',*,*,#206,.F.);
#293=ORIENTED_EDGE('',*,*,#225,.T.);
#294=ORIENTED_EDGE('',*,*,#212,.T.);
#295=ORIENTED_EDGE('',*,*,#207,.F.);
#296=ORIENTED_EDGE('',*,*,#226,.F.);
#297=ORIENTED_EDGE('',*,*,#211,.F.);
#298=ORIENTED_EDGE('',*,*,#227,.T.);
#299=ORIENTED_EDGE('',*,*,#215,.T.);
#300=ORIENTED_EDGE('',*,*,#208,.F.);
#301=ORIENTED_EDGE('',*,*,#227,.F.);
#302=ORIENTED_EDGE('',*,*,#210,.T.);
#303=ORIENTED_EDGE('',*,*,#213,.F.);
#304=ORIENTED_EDGE('',*,*,#224,.T.);
#305=ORIENTED_EDGE('',*,*,#228,.T.);
#306=ORIENTED_EDGE('',*,*,#219,.F.);
#307=ORIENTED_EDGE('',*,*,#229,.F.);
#308=ORIENTED_EDGE('',*,*,#230,.T.);
#309=ORIENTED_EDGE('',*,*,#231,.T.);
#310=ORIENTED_EDGE('',*,*,#228,.F.);
#311=ORIENTED_EDGE('',*,*,#232,.F.);
#312=ORIENTED_EDGE('',*,*,#233,.T.);
#313=ORIENTED_EDGE('',*,*,#229,.T.);
#314=ORIENTED_EDGE('',*,*,#223,.F.);
#315=ORIENTED_EDGE('',*,*,#232,.T.);
#316=ORIENTED_EDGE('',*,*,#221,.T.);
#317=ORIENTED_EDGE('',*,*,#234,.F.);
#318=ORIENTED_EDGE('',*,*,#235,.F.);
#319=ORIENTED_EDGE('',*,*,#236,.T.);
#320=ORIENTED_EDGE('',*,*,#235,.T.);
#321=ORIENTED_EDGE('',*,*,#237,.F.);
#322=ORIENTED_EDGE('',*,*,#238,.F.);
#323=ORIENTED_EDGE('',*,*,#236,.F.);
#324=ORIENTED_EDGE('',*,*,#239,.T.);
#325=ORIENTED_EDGE('',*,*,#240,.T.);
#326=ORIENTED_EDGE('',*,*,#233,.F.);
#327=ORIENTED_EDGE('',*,*,#240,.F.);
#328=ORIENTED_EDGE('',*,*,#241,.T.);
#329=ORIENTED_EDGE('',*,*,#242,.T.);
#330=ORIENTED_EDGE('',*,*,#230,.F.);
#331=ORIENTED_EDGE('',*,*,#237,.T.);
#332=ORIENTED_EDGE('',*,*,#243,.T.);
#333=ORIENTED_EDGE('',*,*,#242,.F.);
#334=ORIENTED_EDGE('',*,*,#244,.F.);
#335=ORIENTED_EDGE('',*,*,#245,.T.);
#336=ORIENTED_EDGE('',*,*,#246,.T.);
#337=ORIENTED_EDGE('',*,*,#244,.T.);
#338=ORIENTED_EDGE('',*,*,#247,.F.);
#339=ORIENTED_EDGE('',*,*,#248,.F.);
#340=ORIENTED_EDGE('',*,*,#245,.F.);
#341=ORIENTED_EDGE('',*,*,#249,.F.);
#342=ORIENTED_EDGE('',*,*,#250,.T.);
#343=ORIENTED_EDGE('',*,*,#248,.T.);
#344=ORIENTED_EDGE('',*,*,#251,.F.);
#345=ORIENTED_EDGE('',*,*,#252,.T.);
#346=ORIENTED_EDGE('',*,*,#253,.T.);
#347=ORIENTED_EDGE('',*,*,#238,.T.);
#348=ORIENTED_EDGE('',*,*,#246,.F.);
#349=ORIENTED_EDGE('',*,*,#254,.F.);
#350=ORIENTED_EDGE('',*,*,#255,.T.);
#351=ORIENTED_EDGE('',*,*,#239,.F.);
#352=ORIENTED_EDGE('',*,*,#253,.F.);
#353=ORIENTED_EDGE('',*,*,#252,.F.);
#354=ORIENTED_EDGE('',*,*,#256,.F.);
#355=ORIENTED_EDGE('',*,*,#257,.F.);
#356=ORIENTED_EDGE('',*,*,#254,.T.);
#357=ORIENTED_EDGE('',*,*,#249,.T.);
#358=ORIENTED_EDGE('',*,*,#247,.T.);
#359=ORIENTED_EDGE('',*,*,#241,.F.);
#360=ORIENTED_EDGE('',*,*,#255,.F.);
#361=ORIENTED_EDGE('',*,*,#257,.T.);
#362=ORIENTED_EDGE('',*,*,#258,.T.);
#363=ORIENTED_EDGE('',*,*,#250,.F.);
#364=ORIENTED_EDGE('',*,*,#258,.F.);
#365=ORIENTED_EDGE('',*,*,#256,.T.);
#366=ORIENTED_EDGE('',*,*,#251,.T.);
#367=ORIENTED_EDGE('',*,*,#234,.T.);
#368=ORIENTED_EDGE('',*,*,#220,.T.);
#369=ORIENTED_EDGE('',*,*,#231,.F.);
#370=ORIENTED_EDGE('',*,*,#243,.F.);
#371=PLANE('',#435);
#372=PLANE('',#438);
#373=PLANE('',#442);
#374=PLANE('',#443);
#375=PLANE('',#448);
#376=PLANE('',#450);
#377=PLANE('',#452);
#378=PLANE('',#454);
#379=PLANE('',#455);
#380=PLANE('',#456);
#381=PLANE('',#460);
#382=PLANE('',#464);
#383=PLANE('',#465);
#384=PLANE('',#469);
#385=PLANE('',#471);
#386=PLANE('',#474);
#387=PLANE('',#475);
#388=PLANE('',#476);
#389=ADVANCED_FACE('',(#23),#371,.T.);
#390=ADVANCED_FACE('',(#24),#372,.F.);
#391=ADVANCED_FACE('',(#25),#15,.T.);
#392=ADVANCED_FACE('',(#26),#373,.F.);
#393=ADVANCED_FACE('',(#27),#374,.T.);
#394=ADVANCED_FACE('',(#28),#16,.T.);
#395=ADVANCED_FACE('',(#29),#375,.F.);
#396=ADVANCED_FACE('',(#30),#376,.T.);
#397=ADVANCED_FACE('',(#31),#17,.T.);
#398=ADVANCED_FACE('',(#32),#377,.T.);
#399=ADVANCED_FACE('',(#33),#18,.F.);
#400=ADVANCED_FACE('',(#34),#378,.F.);
#401=ADVANCED_FACE('',(#35),#379,.T.);
#402=ADVANCED_FACE('',(#36),#380,.T.);
#403=ADVANCED_FACE('',(#37),#19,.F.);
#404=ADVANCED_FACE('',(#38),#381,.T.);
#405=ADVANCED_FACE('',(#39),#20,.T.);
#406=ADVANCED_FACE('',(#40),#382,.F.);
#407=ADVANCED_FACE('',(#41),#383,.F.);
#408=ADVANCED_FACE('',(#42),#21,.T.);
#409=ADVANCED_FACE('',(#43),#384,.T.);
#410=ADVANCED_FACE('',(#44),#385,.T.);
#411=ADVANCED_FACE('',(#45),#22,.T.);
#412=ADVANCED_FACE('',(#46),#386,.F.);
#413=ADVANCED_FACE('',(#47),#387,.F.);
#414=ADVANCED_FACE('',(#48),#388,.F.);
#415=CLOSED_SHELL('',(#389,#390,#391,#392,#393,#394,#395,#396,#397,#398,
#399,#400,#401,#402,#403,#404,#405,#406,#407,#408,#409,#410,#411,#412,#413,
#414));
#416=DERIVED_UNIT_ELEMENT(#418,1.);
#417=DERIVED_UNIT_ELEMENT(#723,3.);
#418=(
MASS_UNIT()
NAMED_UNIT(*)
SI_UNIT($,.GRAM.)
);
#419=DERIVED_UNIT((#416,#417));
#420=MEASURE_REPRESENTATION_ITEM('density measure',
POSITIVE_RATIO_MEASURE(1.),#419);
#421=PROPERTY_DEFINITION_REPRESENTATION(#426,#423);
#422=PROPERTY_DEFINITION_REPRESENTATION(#427,#424);
#423=REPRESENTATION('material name',(#425),#720);
#424=REPRESENTATION('density',(#420),#720);
#425=DESCRIPTIVE_REPRESENTATION_ITEM('Og\X\F3lny','Og\X\F3lny');
#426=PROPERTY_DEFINITION('material property','material name',#730);
#427=PROPERTY_DEFINITION('material property','density of part',#730);
#428=DATE_TIME_ROLE('creation_date');
#429=APPLIED_DATE_AND_TIME_ASSIGNMENT(#430,#428,(#730));
#430=DATE_AND_TIME(#431,#432);
#431=CALENDAR_DATE(2019,1,3);
#432=LOCAL_TIME(13,24,20.,#433);
#433=COORDINATED_UNIVERSAL_TIME_OFFSET(0,0,.BEHIND.);
#434=AXIS2_PLACEMENT_3D('placement',#603,#477,#478);
#435=AXIS2_PLACEMENT_3D('',#604,#479,#480);
#436=AXIS2_PLACEMENT_3D('',#607,#481,#482);
#437=AXIS2_PLACEMENT_3D('',#615,#486,#487);
#438=AXIS2_PLACEMENT_3D('',#617,#489,#490);
#439=AXIS2_PLACEMENT_3D('',#620,#491,#492);
#440=AXIS2_PLACEMENT_3D('',#624,#494,#495);
#441=AXIS2_PLACEMENT_3D('',#630,#499,#500);
#442=AXIS2_PLACEMENT_3D('',#633,#503,#504);
#443=AXIS2_PLACEMENT_3D('',#635,#506,#507);
#444=AXIS2_PLACEMENT_3D('',#637,#508,#509);
#445=AXIS2_PLACEMENT_3D('',#639,#510,#511);
#446=AXIS2_PLACEMENT_3D('',#641,#513,#514);
#447=AXIS2_PLACEMENT_3D('',#644,#516,#517);
#448=AXIS2_PLACEMENT_3D('',#645,#518,#519);
#449=AXIS2_PLACEMENT_3D('',#648,#521,#522);
#450=AXIS2_PLACEMENT_3D('',#650,#524,#525);
#451=AXIS2_PLACEMENT_3D('',#652,#527,#528);
#452=AXIS2_PLACEMENT_3D('',#654,#530,#531);
#453=AXIS2_PLACEMENT_3D('',#655,#532,#533);
#454=AXIS2_PLACEMENT_3D('',#657,#535,#536);
#455=AXIS2_PLACEMENT_3D('',#663,#540,#541);
#456=AXIS2_PLACEMENT_3D('',#667,#544,#545);
#457=AXIS2_PLACEMENT_3D('',#671,#548,#549);
#458=AXIS2_PLACEMENT_3D('',#673,#550,#551);
#459=AXIS2_PLACEMENT_3D('',#675,#552,#553);
#460=AXIS2_PLACEMENT_3D('',#677,#555,#556);
#461=AXIS2_PLACEMENT_3D('',#680,#558,#559);
#462=AXIS2_PLACEMENT_3D('',#681,#560,#561);
#463=AXIS2_PLACEMENT_3D('',#684,#563,#564);
#464=AXIS2_PLACEMENT_3D('',#685,#565,#566);
#465=AXIS2_PLACEMENT_3D('',#688,#569,#570);
#466=AXIS2_PLACEMENT_3D('',#694,#574,#575);
#467=AXIS2_PLACEMENT_3D('',#696,#576,#577);
#468=AXIS2_PLACEMENT_3D('',#698,#578,#579);
#469=AXIS2_PLACEMENT_3D('',#700,#581,#582);
#470=AXIS2_PLACEMENT_3D('',#704,#584,#585);
#471=AXIS2_PLACEMENT_3D('',#706,#587,#588);
#472=AXIS2_PLACEMENT_3D('',#710,#591,#592);
#473=AXIS2_PLACEMENT_3D('',#713,#594,#595);
#474=AXIS2_PLACEMENT_3D('',#714,#596,#597);
#475=AXIS2_PLACEMENT_3D('',#716,#599,#600);
#476=AXIS2_PLACEMENT_3D('',#717,#601,#602);
#477=DIRECTION('axis',(0.,0.,1.));
#478=DIRECTION('refdir',(1.,0.,0.));
#479=DIRECTION('center_axis',(0.,-1.,0.));
#480=DIRECTION('ref_axis',(1.,0.,0.));
#481=DIRECTION('center_axis',(0.,-1.,0.));
#482=DIRECTION('ref_axis',(1.,0.,0.));
#483=DIRECTION('',(1.,0.,0.));
#484=DIRECTION('',(0.,0.,1.));
#485=DIRECTION('',(1.,0.,0.));
#486=DIRECTION('center_axis',(0.,-1.,0.));
#487=DIRECTION('ref_axis',(0.,0.,-1.));
#488=DIRECTION('',(0.,0.,1.));
#489=DIRECTION('center_axis',(0.,-1.,0.));
#490=DIRECTION('ref_axis',(1.,0.,0.));
#491=DIRECTION('center_axis',(0.,1.,0.));
#492=DIRECTION('ref_axis',(0.,0.,1.));
#493=DIRECTION('',(0.,0.,1.));
#494=DIRECTION('center_axis',(0.,1.,0.));
#495=DIRECTION('ref_axis',(1.,0.,0.));
#496=DIRECTION('',(1.,0.,0.));
#497=DIRECTION('',(0.,0.,1.));
#498=DIRECTION('',(1.,0.,0.));
#499=DIRECTION('center_axis',(0.,-1.,0.));
#500=DIRECTION('ref_axis',(1.,0.,0.));
#501=DIRECTION('',(0.,-1.,0.));
#502=DIRECTION('',(0.,-1.,0.));
#503=DIRECTION('center_axis',(0.,0.,-1.));
#504=DIRECTION('ref_axis',(1.,0.,0.));
#505=DIRECTION('',(0.,1.,0.));
#506=DIRECTION('center_axis',(0.,0.,1.));
#507=DIRECTION('ref_axis',(-1.,0.,0.));
#508=DIRECTION('center_axis',(0.,0.,-1.));
#509=DIRECTION('ref_axis',(0.,-1.,0.));
#510=DIRECTION('center_axis',(0.,0.,-1.));
#511=DIRECTION('ref_axis',(0.,-1.,0.));
#512=DIRECTION('',(1.,0.,0.));
#513=DIRECTION('center_axis',(0.,0.,-1.));
#514=DIRECTION('ref_axis',(0.,-1.,0.));
#515=DIRECTION('',(0.,0.,1.));
#516=DIRECTION('center_axis',(0.,0.,-1.));
#517=DIRECTION('ref_axis',(0.,-1.,0.));
#518=DIRECTION('center_axis',(0.,0.,1.));
#519=DIRECTION('ref_axis',(-1.,0.,0.));
#520=DIRECTION('',(1.,0.,0.));
#521=DIRECTION('center_axis',(0.,0.,-1.));
#522=DIRECTION('ref_axis',(0.,-1.,0.));
#523=DIRECTION('',(0.,1.,0.));
#524=DIRECTION('center_axis',(0.,0.,-1.));
#525=DIRECTION('ref_axis',(1.,0.,0.));
#526=DIRECTION('',(0.,-1.,0.));
#527=DIRECTION('center_axis',(0.,-1.,0.));
#528=DIRECTION('ref_axis',(0.,0.,-1.));
#529=DIRECTION('',(0.,-1.,0.));
#530=DIRECTION('center_axis',(1.,0.,0.));
#531=DIRECTION('ref_axis',(0.,0.,1.));
#532=DIRECTION('center_axis',(0.,0.,-1.));
#533=DIRECTION('ref_axis',(0.,-1.,0.));
#534=DIRECTION('',(0.,0.,1.));
#535=DIRECTION('center_axis',(-1.,0.,0.));
#536=DIRECTION('ref_axis',(0.,-1.,0.));
#537=DIRECTION('',(0.,-1.,0.));
#538=DIRECTION('',(0.,0.,1.));
#539=DIRECTION('',(0.,-1.,0.));
#540=DIRECTION('center_axis',(0.,0.,-1.));
#541=DIRECTION('ref_axis',(0.,-1.,0.));
#542=DIRECTION('',(0.,-1.,0.));
#543=DIRECTION('',(1.,0.,0.));
#544=DIRECTION('center_axis',(-1.,0.,0.));
#545=DIRECTION('ref_axis',(0.,-1.,0.));
#546=DIRECTION('',(0.,-1.,0.));
#547=DIRECTION('',(0.,0.,1.));
#548=DIRECTION('center_axis',(0.,0.,1.));
#549=DIRECTION('ref_axis',(1.,0.,0.));
#550=DIRECTION('center_axis',(0.,0.,-1.));
#551=DIRECTION('ref_axis',(-1.,0.,0.));
#552=DIRECTION('center_axis',(0.,0.,-1.));
#553=DIRECTION('ref_axis',(-1.,0.,0.));
#554=DIRECTION('',(0.,0.,1.));
#555=DIRECTION('center_axis',(0.,0.,-1.));
#556=DIRECTION('ref_axis',(0.,1.,0.));
#557=DIRECTION('',(-1.,0.,0.));
#558=DIRECTION('center_axis',(0.,0.,-1.));
#559=DIRECTION('ref_axis',(-1.,0.,0.));
#560=DIRECTION('center_axis',(0.,0.,1.));
#561=DIRECTION('ref_axis',(1.,0.,0.));
#562=DIRECTION('',(0.,0.,1.));
#563=DIRECTION('center_axis',(0.,0.,-1.));
#564=DIRECTION('ref_axis',(-1.,0.,0.));
#565=DIRECTION('center_axis',(0.,0.,-1.));
#566=DIRECTION('ref_axis',(0.,1.,0.));
#567=DIRECTION('',(1.,0.,0.));
#568=DIRECTION('',(-1.,0.,0.));
#569=DIRECTION('center_axis',(0.,0.,-1.));
#570=DIRECTION('ref_axis',(0.,1.,0.));
#571=DIRECTION('',(1.,0.,0.));
#572=DIRECTION('',(0.,1.,0.));
#573=DIRECTION('',(0.,1.,0.));
#574=DIRECTION('center_axis',(1.,0.,0.));
#575=DIRECTION('ref_axis',(0.,0.,1.));
#576=DIRECTION('center_axis',(1.,0.,0.));
#577=DIRECTION('ref_axis',(0.,0.,1.));
#578=DIRECTION('center_axis',(-1.,0.,0.));
#579=DIRECTION('ref_axis',(0.,-1.,0.));
#580=DIRECTION('',(1.,0.,0.));
#581=DIRECTION('center_axis',(1.,0.,0.));
#582=DIRECTION('ref_axis',(0.,1.,0.));
#583=DIRECTION('',(0.,0.,1.));
#584=DIRECTION('center_axis',(1.,0.,0.));
#585=DIRECTION('ref_axis',(0.,-1.,0.));
#586=DIRECTION('',(0.,1.,0.));
#587=DIRECTION('center_axis',(0.,0.,-1.));
#588=DIRECTION('ref_axis',(0.,1.,0.));
#589=DIRECTION('',(1.,0.,0.));
#590=DIRECTION('',(0.,1.,0.));
#591=DIRECTION('center_axis',(1.,0.,0.));
#592=DIRECTION('ref_axis',(0.,-1.,0.));
#593=DIRECTION('',(1.,0.,0.));
#594=DIRECTION('center_axis',(-1.,0.,0.));
#595=DIRECTION('ref_axis',(0.,0.,-1.));
#596=DIRECTION('center_axis',(1.,0.,0.));
#597=DIRECTION('ref_axis',(0.,1.,0.));
#598=DIRECTION('',(0.,0.,1.));
#599=DIRECTION('center_axis',(0.,1.,0.));
#600=DIRECTION('ref_axis',(0.,0.,1.));
#601=DIRECTION('center_axis',(0.,0.,-1.));
#602=DIRECTION('ref_axis',(0.,-1.,0.));
#603=CARTESIAN_POINT('',(0.,0.,0.));
#604=CARTESIAN_POINT('Origin',(7.,0.,-7.));
#605=CARTESIAN_POINT('',(23.2,0.,6.));
#606=CARTESIAN_POINT('',(22.2,0.,7.));
#607=CARTESIAN_POINT('Origin',(22.2,0.,6.));
#608=CARTESIAN_POINT('',(8.7,0.,7.));
#609=CARTESIAN_POINT('',(8.7,0.,7.));
#610=CARTESIAN_POINT('',(8.7,0.,-7.));
#611=CARTESIAN_POINT('',(8.7,0.,-7.));
#612=CARTESIAN_POINT('',(22.2,0.,-7.));
#613=CARTESIAN_POINT('',(8.7,0.,-7.));
#614=CARTESIAN_POINT('',(23.2,0.,-6.));
#615=CARTESIAN_POINT('Origin',(22.2,0.,-6.));
#616=CARTESIAN_POINT('',(23.2,0.,-6.));
#617=CARTESIAN_POINT('Origin',(7.,1.2,-7.));
#618=CARTESIAN_POINT('',(22.2,1.2,7.));
#619=CARTESIAN_POINT('',(23.2,1.2,6.));
#620=CARTESIAN_POINT('Origin',(22.2,1.2,6.));
#621=CARTESIAN_POINT('',(23.2,1.2,-6.));
#622=CARTESIAN_POINT('',(23.2,1.2,-6.));
#623=CARTESIAN_POINT('',(22.2,1.2,-7.));
#624=CARTESIAN_POINT('Origin',(22.2,1.2,-6.));
#625=CARTESIAN_POINT('',(8.7,1.2,-7.));
#626=CARTESIAN_POINT('',(8.7,1.2,-7.));
#627=CARTESIAN_POINT('',(8.7,1.2,7.));
#628=CARTESIAN_POINT('',(8.7,1.2,-7.));
#629=CARTESIAN_POINT('',(8.7,1.2,7.));
#630=CARTESIAN_POINT('Origin',(22.2,18.88952,6.));
#631=CARTESIAN_POINT('',(23.2,1.2,6.));
#632=CARTESIAN_POINT('',(22.2,1.2,7.));
#633=CARTESIAN_POINT('Origin',(15.95,0.6,7.));
#634=CARTESIAN_POINT('',(8.7,0.,7.));
#635=CARTESIAN_POINT('Origin',(7.922182540695,0.9221825406948,7.));
#636=CARTESIAN_POINT('',(7.,1.7,7.));
#637=CARTESIAN_POINT('Origin',(8.7,1.7,7.));
#638=CARTESIAN_POINT('',(8.2,1.7,7.));
#639=CARTESIAN_POINT('Origin',(8.7,1.7,7.));
#640=CARTESIAN_POINT('',(7.,1.7,7.));
#641=CARTESIAN_POINT('Origin',(8.7,1.7,-7.));
#642=CARTESIAN_POINT('',(7.,1.7,-7.));
#643=CARTESIAN_POINT('',(7.,1.7,-7.));
#644=CARTESIAN_POINT('Origin',(8.7,1.7,-7.));
#645=CARTESIAN_POINT('Origin',(7.922182540695,0.9221825406948,-7.));
#646=CARTESIAN_POINT('',(8.2,1.7,-7.));
#647=CARTESIAN_POINT('',(7.,1.7,-7.));
#648=CARTESIAN_POINT('Origin',(8.7,1.7,-7.));
#649=CARTESIAN_POINT('',(8.7,0.,-7.));
#650=CARTESIAN_POINT('Origin',(15.95,0.6,-7.));
#651=CARTESIAN_POINT('',(22.2,1.2,-7.));
#652=CARTESIAN_POINT('Origin',(22.2,18.88952,-6.));
#653=CARTESIAN_POINT('',(23.2,1.2,-6.));
#654=CARTESIAN_POINT('Origin',(23.2,0.6,0.));
#655=CARTESIAN_POINT('Origin',(8.7,1.7,-7.));
#656=CARTESIAN_POINT('',(8.2,1.7,-7.));
#657=CARTESIAN_POINT('Origin',(8.2,3.5,-7.));
#658=CARTESIAN_POINT('',(8.2,3.5,-7.));
#659=CARTESIAN_POINT('',(8.2,3.5,-7.));
#660=CARTESIAN_POINT('',(8.2,3.5,7.));
#661=CARTESIAN_POINT('',(8.2,3.5,-7.));
#662=CARTESIAN_POINT('',(8.2,3.5,7.));
#663=CARTESIAN_POINT('Origin',(7.6,2.6,-7.));
#664=CARTESIAN_POINT('',(7.,3.5,-7.));
#665=CARTESIAN_POINT('',(7.,3.5,-7.));
#666=CARTESIAN_POINT('',(7.,3.5,-7.));
#667=CARTESIAN_POINT('Origin',(7.,3.5,-7.));
#668=CARTESIAN_POINT('',(7.,3.5,7.));
#669=CARTESIAN_POINT('',(7.,3.5,7.));
#670=CARTESIAN_POINT('',(7.,3.5,-7.));
#671=CARTESIAN_POINT('Origin',(3.5,3.5,-7.));
#672=CARTESIAN_POINT('',(0.,3.5,-7.));
#673=CARTESIAN_POINT('Origin',(3.5,3.5,-7.));
#674=CARTESIAN_POINT('',(0.,3.5,7.));
#675=CARTESIAN_POINT('Origin',(3.5,3.5,7.));
#676=CARTESIAN_POINT('',(0.,3.5,-7.));
#677=CARTESIAN_POINT('Origin',(3.5,7.6,-7.));
#678=CARTESIAN_POINT('',(-1.2,3.5,-7.));
#679=CARTESIAN_POINT('',(0.,3.5,-7.));
#680=CARTESIAN_POINT('Origin',(3.5,3.5,-7.));
#681=CARTESIAN_POINT('Origin',(3.5,3.5,-7.));
#682=CARTESIAN_POINT('',(-1.2,3.5,7.));
#683=CARTESIAN_POINT('',(-1.2,3.5,-7.));
#684=CARTESIAN_POINT('Origin',(3.5,3.5,7.));
#685=CARTESIAN_POINT('Origin',(3.5,7.6,7.));
#686=CARTESIAN_POINT('',(7.,3.5,7.));
#687=CARTESIAN_POINT('',(0.,3.5,7.));
#688=CARTESIAN_POINT('Origin',(-0.6,1.75,7.));
#689=CARTESIAN_POINT('',(-1.2,1.,7.));
#690=CARTESIAN_POINT('',(0.,1.,7.));
#691=CARTESIAN_POINT('',(-1.2,1.,7.));
#692=CARTESIAN_POINT('',(0.,1.,7.));
#693=CARTESIAN_POINT('',(-1.2,1.,7.));
#694=CARTESIAN_POINT('Origin',(-33.00784,1.,6.));
#695=CARTESIAN_POINT('',(0.,0.,6.));
#696=CARTESIAN_POINT('Origin',(0.,1.,6.));
#697=CARTESIAN_POINT('',(-1.2,0.,6.));
#698=CARTESIAN_POINT('Origin',(-1.2,1.,6.));
#699=CARTESIAN_POINT('',(-1.2,0.,6.));
#700=CARTESIAN_POINT('Origin',(0.,0.,-7.));
#701=CARTESIAN_POINT('',(0.,0.,-6.));
#702=CARTESIAN_POINT('',(0.,0.,-6.));
#703=CARTESIAN_POINT('',(0.,1.,-7.));
#704=CARTESIAN_POINT('Origin',(0.,1.,-6.));
#705=CARTESIAN_POINT('',(0.,1.,-7.));
#706=CARTESIAN_POINT('Origin',(-0.6,1.75,-7.));
#707=CARTESIAN_POINT('',(-1.2,1.,-7.));
#708=CARTESIAN_POINT('',(-1.2,1.,-7.));
#709=CARTESIAN_POINT('',(-1.2,1.,-7.));
#710=CARTESIAN_POINT('Origin',(-33.00784,1.,-6.));
#711=CARTESIAN_POINT('',(-1.2,0.,-6.));
#712=CARTESIAN_POINT('',(-1.2,0.,-6.));
#713=CARTESIAN_POINT('Origin',(-1.2,1.,-6.));
#714=CARTESIAN_POINT('Origin',(-1.2,0.,-7.));
#715=CARTESIAN_POINT('',(-1.2,0.,-6.));
#716=CARTESIAN_POINT('Origin',(-0.6,0.,0.));
#717=CARTESIAN_POINT('Origin',(7.6,2.6,7.));
#718=UNCERTAINTY_MEASURE_WITH_UNIT(LENGTH_MEASURE(0.01),#722,
'DISTANCE_ACCURACY_VALUE',
'Maximum model space distance between geometric entities at asserted c
onnectivities');
#719=UNCERTAINTY_MEASURE_WITH_UNIT(LENGTH_MEASURE(0.01),#722,
'DISTANCE_ACCURACY_VALUE',
'Maximum model space distance between geometric entities at asserted c
onnectivities');
#720=(
GEOMETRIC_REPRESENTATION_CONTEXT(3)
GLOBAL_UNCERTAINTY_ASSIGNED_CONTEXT((#718))
GLOBAL_UNIT_ASSIGNED_CONTEXT((#722,#724,#725))
REPRESENTATION_CONTEXT('','3D')
);
#721=(
GEOMETRIC_REPRESENTATION_CONTEXT(3)
GLOBAL_UNCERTAINTY_ASSIGNED_CONTEXT((#719))
GLOBAL_UNIT_ASSIGNED_CONTEXT((#722,#724,#725))
REPRESENTATION_CONTEXT('','3D')
);
#722=(
LENGTH_UNIT()
NAMED_UNIT(*)
SI_UNIT(.MILLI.,.METRE.)
);
#723=(
LENGTH_UNIT()
NAMED_UNIT(*)
SI_UNIT(.CENTI.,.METRE.)
);
#724=(
NAMED_UNIT(*)
PLANE_ANGLE_UNIT()
SI_UNIT($,.RADIAN.)
);
#725=(
NAMED_UNIT(*)
SI_UNIT($,.STERADIAN.)
SOLID_ANGLE_UNIT()
);
#726=SHAPE_DEFINITION_REPRESENTATION(#727,#728);
#727=PRODUCT_DEFINITION_SHAPE('',$,#730);
#728=SHAPE_REPRESENTATION('',(#434),#720);
#729=PRODUCT_DEFINITION_CONTEXT('part definition',#734,'design');
#730=PRODUCT_DEFINITION('UDFB7','UDFB7',#731,#729);
#731=PRODUCT_DEFINITION_FORMATION('19LAST_VERSION',$,#736);
#732=PRODUCT_RELATED_PRODUCT_CATEGORY('UDFB7','UDFB7',(#736));
#733=APPLICATION_PROTOCOL_DEFINITION('international standard',
'automotive_design',2009,#734);
#734=APPLICATION_CONTEXT(
'Core Data for Automotive Mechanical Design Process');
#735=PRODUCT_CONTEXT('part definition',#734,'mechanical');
#736=PRODUCT('UDFB7','UDFB7',$,(#735));
#737=PRESENTATION_STYLE_ASSIGNMENT((#738));
#738=SURFACE_STYLE_USAGE(.BOTH.,#741);
#739=SURFACE_STYLE_RENDERING_WITH_PROPERTIES($,#745,(#740));
#740=SURFACE_STYLE_TRANSPARENT(0.);
#741=SURFACE_SIDE_STYLE('',(#742,#739));
#742=SURFACE_STYLE_FILL_AREA(#743);
#743=FILL_AREA_STYLE('',(#744));
#744=FILL_AREA_STYLE_COLOUR('',#745);
#745=COLOUR_RGB('',0.749019607843137,0.749019607843137,0.749019607843137);
ENDSEC;
END-ISO-10303-21;
